Untitled

Simple Plan

tom: F#
[Intro] F#

E|-------------------------------|
B|------------------11-----------|
G|------11----13-----------------|
D|---11----11----11---11---------|
A|-9-----------------------------|
E|-------------------------------|

(guitarra 1)

      F#
E|-------------------||
B|-------------------||
G|-------------3-----||
D|-----4---6---------||
A|---4---4---4---4---||
E|-2-----------------||

(guitarra 2)

E|---------|
B|---------|
G|---------|
D|-----4-6-|
A|---4-----|
D|-4-------|

      D#m                  C#                  B
E|------------------||------------------||-------------------|
B|--------------7---||---------6--------||----------4--------|
G|-----8---10-------||-----6--------6---||-----4--------4----|
D|---8---8----8---8-||---6---6----6---6-||---4---4----4---4--|
A|-6----------------||-4----------------||-2-----------------|
E|------------------||------------------||-------------------|

D#m5
I open my eyes I try to see but I'm blinded
       F#5
By the white light
        D#m5
I can't remember how I can't remember why
           F#5   C#5
I'm lying here tonight
       B5              C#5
And I can't stand the pain
      D#m5           F#5
And I can't make it go away
     B5               C#5
No I can't stand the pain

                         F#5
How could this happen to me?
            D#m5
I made my mistakes
                B5
Got no where to run
               C#5
The night goes on
               F#5
As I'm fading away
                 D#m5
I'm sick of this life
             B5
I just wanna scream
C#5                       F#5
How could this happen to me?

(riff's)

D#m5
Everybody's screaming I try to make a sound
           F#5
But no one hears me
    D#m5
I'm slipping off the edge I'm hanging by a thread
  F#5                   C#5
I wanna start this over again
   B5        C#5
So I try to hold onto
  D#m5        F#5
A time when nothing mattered
    B5          C#5
And I can't explain what happened
   D#m5      F#5                      B5
And I can't erase the things that I've done
     C#5
No I can't
                         F#5
How could this happen to me?
             D#m5
I made my mistakes
                B5
Got no where to run
               C#5
The night goes on
               F#5
As I'm fading away
                 D#m5
I'm sick of this life
             B5
I just wanna scream
C#5
How could this happen to me?

[Solo] B5   C#5   D#   F#5   B5   C#5   D5   F#5

E|---------------------------------------------------------------------------------9/11/9------|
B|---------------------------------------------------------------------------------9/11/9------|
G|---------------------------------------------------13b-11-13-11~~--16-15-11~-----------------|
D|--------------------------------------------11-13------------------------------11------------|
A|---------------11h13-11-9-11~~--9-11-13------------------------------------------------------|
E|---7---7/11-14-------------------------------------------------------------------------------|

F#5           D#m5
 I made my mistakes
                B5
Got no where to run
               C#5
The night goes on
               F#5
As I'm fading away
             D#m5
I'm sick of this life
             B5
I just wanna scream
C#5                       F#5
How could this happen to me?
Página 1 / 1

Letras e título
Acordes e artista

resetar configurações
OK