Cifra Club

The Right Thing

Simply Red

Tab de baixo: Principal
Disco: Men and Women (1987)

O baixo é composto por apenas algumas frases que se repetem ao longo da música.
O momento em que cada frase aparece pela primeira vez está indicado entre parênteses.
Tempo (+) e contratempo (-) estão indicados numa das cordas que não é usada. 

º/º  = repetição do compasso anterior. Por exemplo: |1|2|º/º| = |1|2|2|
º//º = repetição dos dois compassos anteriores. Por exemplo: |1|2|º//º| = |1|2|1|2|

Introdução:  tchu tchu ....(0:07)

G:+-+-+-+-+-+-+-+-|+-+-+-+-+-+-+-+-|+-+-+-+-+-+-+-+-|+-+-+-+-+-+-+-+-|+-+-+-+-+-+-+-+-|
D:----------------|----------------|----------------|----------------|----------------|
A:------------2-4-|--------0-2-2-4-|------º//º------|------------2-4-|------------2-24|
E:--0---0---0-----|--0---0---------|----------------|--0---0---0-----|--002-224-44----|

Estrofe 1:  In the middle of the night ... (0:20)

G:+-+-+-+-+-+-+-+-|+-+-+-+-+-+-+-+-|+-+-+-+-+-+-+-+-|+-+-+-+-+-+-+-+-|
D:----------------|----------------|----------------|----------------|
A:------------2-4-|--------0-2-2-4-|----2-2---2---24|------------2-24|
E:--0---0---0-----|--0---0---------|--2-------------|0-002-224-44----|

Ponte:  Feel I’m getting harder ...(0:57)

G:+-+-+-+-+-+-+-+-|+-+-+-+-+-+-+-+-|+-+-+-+-+-+-+-+-|+-+-+-+-+-+-+-+-|
D:----------------|----------------|----------------|----------------|
A:----------------|------------2-4-|--------2-------|----------------|
E:0-0-------------|--33-3-32-3-----|2---------------|0---------------|

Repete Introdução:  tchu tchu ....(1:15)

Estrofe 2:  I told you to stop ... (1:24) (Frase idêntica à da Estrofe 1)

Refrão:  	I, oh I, ...(1:42)

G:+-+-+-+-+-+-+-+-|+-+-+-+-+-+-+-+-|+-+-+-+-+-+-+-+-|+-+-+-+-+-+-+-+-|
D:--220-00--------|----------------|----------------|----------------|
A:--------4-442-22|--------2-2---24|------º/º-------|------------2-24|
E:0---------------|2-2---2---------|----------------|0-002-224-44----|

Repete Ponte:  Feel I’m getting harder ...(1:59)

Repete metade da Estrofe 1:  In the middle of the night ... (2:19)

Repete Refrão (2X):  I, oh I, ...(2:36)

Poslúdio:  I’m on fire now ... (3:14)

G:+-+-+-+-+-+-+-+-|+-+-+-+-+-+-+-+-|+-+-+-+-+-+-+-+-|+-+-+-+-+-+-+-+-|
D:--------2-2---2-|------------4---|------------4-44|----------------|
A:------22----2---|------224-2---2-|----4-442-22----|------------2-4-|
E:0-0-------------|4-4-------------|2-22------------|0-0---0-2-4-----|
00:00 / 00:00
Outros vídeos desta música
Repetir
Outros vídeos desta música
Composição de Mick Hucknall
Colaboração e revisão:
  • Mário Júnior
285 exibições

0 comentários

Ver todos os comentários

Conseguiu tocar?

0 Tocaram 0 Ainda não

Grave um vídeo tocando The Right Thing e nos envie!

Entre para oCifra Club PRO

Tenha acesso a benefícios exclusivos no App e no Site

  • Chega de anúncios

  • Prioridade de compra em lançamentos

  • Mais recursos no app do Afinador

  • Atendimento Prioritário

  • Descontos nos produtos Cifra Club

  • Ajude a produzir mais conteúdo

00:00 / 00:00

Cifra Club Pro

Aproveite o Cifra Club com benefícios exclusivos e sem anúncios
Cifra Club Pro
Aproveite o Cifra Club com benefícios exclusivos e sem anúncios
OK