Cifra Club

Todo por la napia

Siniestro Total

Cifra: Principal (violão e guitarra)
tom: D

(Entrada)
E|----------------------------------------------------------|
B|-----------------------------------7-7-7------------------|
G|-------7-7-----------------7---7-9-------9-7-------7-7----|
D|-9-7/9-----9---7-9-9-9-9-9-------------------9-7/9-----9--|
A|-------------9---------------9----------------------------|
E|----------------------------------------------------------|

E|------------10-10-10-10-12-------|
B|------10-12----------------------|
G|---11----------------------11----|
D|---------------------------------|
A|---------------------------------|
E|---------------------------------|

A/ B          A/ B 
Érase un hombre a una nariz pegado
D/M I    D/M I      A/ B       A/ B 
y pegado a la nariz un talego enrollado
A/ B            A/ B 
eran unas fosas nasales gigantescas
D/M I    D/M I    A/ B       A/ B 
Como túnel grande sobre carretera
A/ B          A/ B 
era el trabajo de aspirador
D/M I  D/M I       A/ B     A/ B 
al que aspiraba al que hizo oposición
A/ B        A/ B 
era era era era que se era
D/M I  F# E        A/ B     A/ B      D  Fa#(alto)
era su nariz su pecado y su condena

B     F#    D  B       D  Fa#(alto)
Todo por la napia
E    D            C#/D O/Si
snif snif todo por la nariz

(Entrada)

Era Medellín su tierra prometida
era el polvo blanco su maná y su alegría
no era un camello sino una caravana
la que le pasaba la materia colombiana
era que estudiaba geografía americana
era que amaba a Toni Montana
y era el pegamento y las colas industriales
sus otras pasiones sus efectos personales

Todo por la napia
snif snif todo por la nariz

(Solo con guagua)

Era que oía a su madre que decía
Perico, no te excites y Perico se reía
era el placer para su pituitaria
todo lo que entraba fuera línea o fuera raya
era que despacio y poco a poco su tabique
se había desgastado se había ido a pique
y era que escuchaba el consejo del vecino
Haz como yo y ponte uno de platino

Todo por la napia
Todo por la napia
snif snif todo por la nariz
Compositor não encontrado.
3 exibições
    • ½ Tom
    • A
    • Bb
    • B
    • C
    • Db
    • D
    • Eb
    • E
    • F
    • F#
    • G
    • Ab
  • Adicionar à lista

    0 comentários

    Ver todos os comentários

    Conseguiu tocar?

    0 Tocaram 0 Ainda não

    Grave um vídeo tocando Todo por la napia e nos envie!

    00:00 / 00:00
    Outros vídeos desta música
    Repetir Qualidade Automático
    Outros vídeos desta música
    00:00 / 00:00
    Automático

    Cifra Club Pro

    Aproveite o Cifra Club com benefícios exclusivos e sem anúncios
    Cifra Club Pro
    Aproveite o Cifra Club com benefícios exclusivos e sem anúncios
    OK