Cifra Club

Tout Le Bonheur Du Monde

Sinsémilia

Tab de baixo: Principal

G------------------------------|-------------------------------|
D------------------------------|-----------------7~-----7------|
A---7~-----7-----5~-----5---0--|---8~-----8----5----5-5---5----|
E-5----5-5---5-3----3-3---3----|-6----6-6---6------------------|


G----------------------------|-------------------------------|
D----------------------------|-----------------7~-----7------|
A---5~-----5------7~-----7---|---8~-----8----5----5-5---5----|
E-3----3-3---3--5----5-5---5-|-6----6-6---6------------------|


G-----------------------|
D-----------------------|
A---7-------------5-3---|
E-5---0-1--3-3--5-------|


pont

G----------------|
D---2-2----------|
A-1-----0-----1--|
E---------0-3----|

par seb * * *
00:00 / 00:00
Outros vídeos desta música
Repetir
Outros vídeos desta música
Compositor não encontrado.
537 exibições

0 comentários

Ver todos os comentários

Entre para oCifra Club PRO

Tenha acesso a benefícios exclusivos no App e no Site

  • Chega de anúncios

  • Prioridade de compra em lançamentos

  • Mais recursos no app do Afinador

  • Atendimento Prioritário

  • Descontos nos produtos Cifra Club

  • Ajude a produzir mais conteúdo

00:00 / 00:00

Cifra Club Pro

Aproveite o Cifra Club com benefícios exclusivos e sem anúncios
Cifra Club Pro
Aproveite o Cifra Club com benefícios exclusivos e sem anúncios
OK