Cifra Club

Aprenda

Mulher Ruiva

Sistema Nervoso

Cifra: Principal (violão e guitarra)
tom: A
intro:D E A D E A D E A

Mulher ruiva, cor de pele branca.
   D           E            A
Ela me deixou com cara de bacana
   D           E            A
Filha de uma puta, piranha!!!!!
   E           D            A

Solo:

|-------------------------14-16-14--19-18-16----19-18-16-----17-16-14------|
|------17-16-14---------17-----------------19-16--------19-16--------17-14-|
|-11-13--------16--11-13---------------------------------------------------|
|--------------------------------------------------------------------------|
|--------------------------------------------------------------------------|
|--------------------------------------------------------------------------|

|-------------0-12-14-16/\-14-12-12~---------------------------------------|
|-10-12/\-10-9-------------------------------------------------------------|
|--------------------------------------------------------------------------|
|--------------------------------------------------------------------------|
|--------------------------------------------------------------------------|
|--------------------------------------------------------------------------|

O que eu devo fazer com essa mulher?
    E           A           F#
Vadia, vadia, vadia, vadia.
    F#          C#           A
Agora só quero que ela volte para mim
    F#          C#           D
Irei fazer coisas com ela que ela nunca viu
    F#          C#           A
Ela me traiu, com o meu melhor amigo, isso não aceito
    F#          A            D
Não aceito isso de jeito nenhum
    D           E            A
Pode crer é isso aí, vou pizar só para me diverti
    A           D            F#
Por isso eu digo, a vida é bela nós que fudemos ela
    A           A            A     F#        F#    D
Compositor não encontrado.
Colaboração e revisão:
  • Steellexsander Xavier
1.252 exibições
    • ½ Tom
    • A
    • Bb
    • B
    • C
    • Db
    • D
    • Eb
    • E
    • F
    • F#
    • G
    • Ab
  • Adicionar à lista

    0 comentários

    Ver todos os comentários

    Conseguiu tocar?

    0 Tocaram 0 Ainda não

    Grave um vídeo tocando Mulher Ruiva e nos envie!

    00:00 / 00:00
    Outros vídeos desta música
    Repetir Qualidade Automático
    Outros vídeos desta música
    00:00 / 00:00
    Automático

    Cifra Club Pro

    Aproveite o Cifra Club com benefícios exclusivos e sem anúncios
    Cifra Club Pro
    Aproveite o Cifra Club com benefícios exclusivos e sem anúncios
    OK