Cifra Club

Aprenda

Lost In Muscic

Sister Sledge

Tab de baixo: Principal
http://*



Album: We Are Family (1979)
Tabbed by: Kimmingtoncat


Verse

G|-------------------------------------------------------|
D|-------------------------------------------------------|
A|-------------------------------------------------------|
E|-8-8-10-10---10-10-10-10-10-10--8-8---3--3-3-3-3-3-3-3-|

G|-------------------------------------------------------|
D|-------------------------------------------------------|
A|-------------------------------------------------------|
E|-8-8--6-6-6-6-6-6-6--6-6---8-8--8-8-8-8-8-8--8-8-------|

Chorus

G|-------------------------------------------------------|
D|-------------------------------------------------------|
A|-------------------------------------------------------|
E|-10--10-10-10---8--3--3-3-3---2-3-5--------------------|    

G|-------------------------------------------------------|
D|-------------------------------------------------------|
A|-------------------------------------------------------|
E|-6--6-6-6---8---10--10-10-10---6-8---10----------------|
			


Composição de Bernard Edwards / Nile Rodgers
627 exibições

0 comentários

Ver todos os comentários

Conseguiu tocar?

0 Tocaram 0 Ainda não

Grave um vídeo tocando Lost In Muscic e nos envie!

00:00 / 00:00
Outros vídeos desta música
Repetir Qualidade Automático
Outros vídeos desta música
00:00 / 00:00
Automático

Cifra Club Pro

Aproveite o Cifra Club com benefícios exclusivos e sem anúncios
Cifra Club Pro
Aproveite o Cifra Club com benefícios exclusivos e sem anúncios
OK