Thinking Of You

Sister Sledge

Composição de: Bernard Edwards / Edwards / Nile Rodgers / Rodgers
tom: Bb
Tabbed by Nocentelli
*

This should be played with a clean compressed guitar sound. Nile Rogers plays lots of 
heavy emphasis on the rhythmn of piece.

I have not annotated any muting: You will need to listen to the song to pick up the feel 
Nile's playing.

Please note, these chords are my interpretation of the overall arrangement of the 
song, and should be approached as such.


Intro


    Gm            Dm7           Eb          Bbmaj7


E--------13>10---------------------------------------|
B---------------------------------------------6------|
G-----------------------12>10---(8)-----8-----7------|
D---10>12---------10---(10)------8------8-----7------|
A---10------------10>12-12-------8>10---------8------|
E----------------------------------------------------|

    Gm            Dm7           Eb          Bbmaj7


E--------13>10--------------------------------10-------|
B---------------------------------------------10-------|
G-----------------------12>10---(8)-----8-----10-------|
D---10>12---------10---(10)------8------8-----8--------|
A---10------------10>12-12-------8>10------------------|
E------------------------------------------------------|

Repeat a few times, then do this a few times (this is also the chorus)

    Ebmaj7          Bbmaj7      Ebmaj7          Bbmaj7


E------------------------------------------------10------|
B---8-------8--------6-----------8-----8---------10------|
G---7-------7--------7-----------7-----7---------10------|
D---8-------8--------7-----------8-----8---------8-------|
A---6-------6--------8-----------6-----6-----------------|
E--------------------6-----------------------------------|

The verse is the intro riff, cycled around with variations, and ending
with a turnaround thus:


    Cm7    F        Bbmaj7


E--------------------------------------------------------|
B---8-------10-------6-----------------------------------|
G---8-------10-------7-----------------------------------|
D---8-------10-------7-----------------------------------|
A---10------8--------8-----------------------------------|
E---8----------------6-----------------------------------|


...have fun!
Página 1 / 1

Letras e título
Acordes e artista

resetar configurações
OK