Cifra Club

Lucretia My Reflection

The Sisters Of Mercy

Cifra: Principal (violão e guitarra)
tom: A
 Intro: D  C#m  Bm  E

E|--10------10-----9------9-----7-----7----------7---9----|
B|-----10------------9------------7------------9----------|
G|-------11------------9-----------7----7p9-7-------------|
D|--12------12-----11-----11----9-----9------9---9---11---|
A|--------------------------------------------------------|
E|--------------------------------------------------------|

E|--10------10-----9------9-----7-----7----------7---9-----|
B|-----10------------9------------7------------9-----------|
G|-------11------------9-----------7----7p9-7--------------|
D|--12------12-----11-----11----9-----9------9---9---11----|
A|---------------------------------------------------------|
E|---------------------------------------------------------|


D        C#m
Havia um tempo em que eu vivia
00:00 / 00:00
Outros vídeos desta música
Repetir
Outros vídeos desta música
Composição de Andrew Eldritch
Colaboração e revisão:
  • Francoise Lacaze
1.974 exibições
    • ½ Tom
    • A
    • Bb
    • B
    • C
    • Db
    • D
    • Eb
    • E
    • F
    • F#
    • G
    • Ab
  • Adicionar à lista

    0 comentários

    Ver todos os comentários

    Entre para oCifra Club PRO

    Tenha acesso a benefícios exclusivos no App e no Site

    • Chega de anúncios

    • Prioridade de compra em lançamentos

    • Mais recursos no app do Afinador

    • Atendimento Prioritário

    • Descontos nos produtos Cifra Club

    • Ajude a produzir mais conteúdo

    00:00 / 00:00

    Cifra Club Pro

    Aproveite o Cifra Club com benefícios exclusivos e sem anúncios
    Cifra Club Pro
    Aproveite o Cifra Club com benefícios exclusivos e sem anúncios
    OK