Cifra Club

Aprenda

More

The Sisters Of Mercy

Cifra: Principal (violão e guitarra)
tom: Bb
Intro/ verse:

Palm muted (guitar arranged for synth.)
e----------------------------------------------------------|
B----------------------------------------------------------|
G----------------------------------------------------------|
D-10/8/10--10-10-10-10-10-10---10/8/10--10-10-10-10-10-10--|
A-10/8/10--10-10-10-10-10-10---10/8/10--10-10-10-10-10-10--|
E--8/8/-8---8--8--8--8--8--8----8/8/-8---8--8--8--8--8--8--|

(continue)
e---------------------------------------------|
B---------------------------------------------|
G------10--10-10-10-10--8-8-8/10/-------------|
D-10/8/10--10-10-10-10--8-8-8/10/10-----------|
A-10/8/-8---8--8--8--8--6-6-6/-8/10-----------|
E--8/8/---------------------------8-----------|


Chorus:

Guitar 1
e-----------------------------------------------------|
B-----------------------------------------------------|
G------------------10-10-10-x-x-10--8-8-8/10/---------|
D-10-10-10-x-x-10--10-10-10-x-x-10--8-8-8/10/10-10----|
A-10-10-10-x-x-10---8--8--8-x-x--8--6-6-6/-8/10-10----|
E--8--8--8-x-x--8-----------------------------8--8----|

Guitar 2
e---------------------------------------------|
B---------------------------------------------|
G-5-5-5-x-x-5--5-5-5-x-x-5--3-3-3-------------|
D-5-5-5-x-x-5--3-3-3-x-x-3--1-1-1-----1-------|
A-3-3-3-x-x-3--3-3-3-x-x-3--1-1-1-1/3---3-1---|
E---------------------------------------------|


Have fun!
Compositor não encontrado.
2.795 exibições
    • ½ Tom
    • A
    • Bb
    • B
    • C
    • Db
    • D
    • Eb
    • E
    • F
    • F#
    • G
    • Ab
  • Adicionar à lista

    0 comentários

    Ver todos os comentários

    Conseguiu tocar?

    0 Tocaram 0 Ainda não

    Grave um vídeo tocando More e nos envie!

    00:00 / 00:00
    Outros vídeos desta música
    Repetir Qualidade Automático
    Outros vídeos desta música
    00:00 / 00:00
    Automático

    Cifra Club Pro

    Aproveite o Cifra Club com benefícios exclusivos e sem anúncios
    Cifra Club Pro
    Aproveite o Cifra Club com benefícios exclusivos e sem anúncios
    OK