Cifra Club

Aprenda

My Hatred

Six Feet Under

Tab de baixo: Principal

Album: Bringer Of Blood
Tapper: InTheDarkness


Intro
G|---------------------------------------------------|
D|---------------------------------------------------|
A|---------------------------------------------------|
D|--0-0-0--0--0-0-0--0--0----------------------------|

G|---------------------------------------------------|
D|---------------------------------------------------|
A|---------------------------------------------------|
D|--0-0-0--0--0-0-0--0--0----------------------------|


G|---------------------------------------------------|
D|---------------------------------------------------|
A|---------------------------------------------------| X4
D|--6-6-6-6-5-5-5-5-3-3-3-3-2-~-1-~------------------|


Verse
G|---------------------------------------------------|
D|---------------------------------------------------|
A|---------------------------------------------------|
D|--0-0-1-0-0-1----0-0-1-0-0-1----0-0-1-0-0-1--4/3---|

G|---------------------------------------------------|
D|---------------------------------------------------|
A|---------------------------------------------------|
D|--0-0-1-0-0-1----0-0-1-0-0-1----0-0-1-0-0-1--3/6---|

repeat the entire verse four times


P-Chorus
G|---------------------------------------------------|
D|---------------------------------------------------|
A|---------------------------------------------------|
D|--0-0-1-0-0-1--1-2-1-2--0-0-1-0-0-1--1-2-1-2-------|
    Im in the shadows


G|---------------------------------------------------|
D|---------------------------------------------------|
A|---------------------------------------------------|
D|--0-0-1-0-0-1--1-2-1-2--0-0-1-0-0-1--1-2-1-2-3-4-5-|
  so close Ive almost got you
G|---------------------------------------------------|
D|---------------------------------------------------|
A|---------------------------------------------------|
D|--0-0-1-0-0-1--1-2-1-2--0-0-1-0-0-1--1-2-1-2-------|
  Doomed to the end dead from the beginning

G|---------------------------------------------------|
D|---------------------------------------------------|
A|---------------------------------------------------|
D|--0-0-1-0-0-1--1-2-1-2--0-0-1-0-0-1--1-2-1-2-3-4-5-|


Chorus
G|---------------------------------------------------|
D|---------------------------------------------------|
A|---------------------------------------------------| X6
D|--6-6-6-6--5-5-5-5--3-3-3-3---1-2-1-2--------------|


P-Verse
G|---------------------------------------------------|
D|---------------------------------------------------|
A|---------------------------------------------------|
D|--0-0-1-0-0-1--1-2-1-2--0-0-1-0-0-1--1-2-1-2-3-4-5-|

Verse2
G|---------------------------------------------------|
D|---------------------------------------------------|
A|---------------------------------------------------|
D|--0-0-1-0-0-1--1-2-1-2--0-0-1-0-0-1--1-2-1-2-------|

G|---------------------------------------------------|
D|---------------------------------------------------|
A|---------------------------------------------------|
D|--0-0-1-0-0-1--1-2-1-2--0-0-1-0-0-1--1-2-1-2-3-4-5-|
play these two above twice than verse2 once
Verse2
G|---------------------------------------------------|
D|---------------------------------------------------|
A|---------------------------------------------------| X3
D|--6-6-6-6--5-5-5-5--3-3-3-3---1-2-1-2--------------|

repeat entire verse2 4 times


Bridge
G|---------------------------------------------------|
D|---------------------------------------------------|
A|---------------------------------------------------| X2
D|--0-0-0-0-1--0-0-0-0-1--0-0-0-0-2-4/6--------------|

G|---------------------------------------------------|
D|---------------------------------------------------|
A|---------------------------------------------------| X4
D|--0-0-0-0-1--0-0-0-0-1--0-0-0-0-2--4/6--4/6--------|

Reapeat bridge 4 times total
Reapeat Intro
Repeat P-Chorus
Repeat verse1
Reapeat verse2 until end
Composição de Chris Barnes / Geezer Butler / Steve Swanson
175 exibições

0 comentários

Ver todos os comentários

Conseguiu tocar?

0 Tocaram 0 Ainda não

Grave um vídeo tocando My Hatred e nos envie!

00:00 / 00:00
outros vídeos desta música
repetir qualidade Automático
Outros vídeos desta música
00:00 / 00:00
Automático

Cifra Club Pro

Aproveite o Cifra Club com benefícios exclusivos e sem anúncios
Cifra Club Pro
Aproveite o Cifra Club com benefícios exclusivos e sem anúncios
OK