Cifra Club

Aprenda

Night Visions

Six Feet Under

Tab de baixo: Principal
Já pensou em usar uma coleção de roupas do Cifra Club? Responda as perguntas abaixo e nos ajude nessa missão! →
 


TUNING DADG (Low to High)


     A
G|-----------|
D|*---------*|
A|*---------*|
D|--8-3-8-5--|  x2

     B
G|-------------|
D|*-----------*|
A|*-----------*|
D|--5~--8-3-8--| x8

         C
G|--------------------------|
D|*------------------------*|
A|*------------------------*|
D|---0~--4-3-0-6-5-0-4-3-2--| x4

Repeat  B x4
Repeat  C x4

         D
G|-------------------|
D|*-----------------*|
A|*---3----4~----2~-*|
D|--5---5-----3~-----| x4

Repeat  C x4
Repeat  D x4
Repeat B x4

      Fig E
G|-------------|
D|*-----------*|
A|*-----------*|
D|--0~--1-0-4--| x4

Repeat  B x4







Composição de Allen West / Chris Barnes
144 exibições

0 comentários

Ver todos os comentários

Conseguiu tocar?

0 Tocaram 0 Ainda não

Grave um vídeo tocando Night Visions e nos envie!

00:00 / 00:00
outros vídeos desta música
repetir qualidade Automático
Outros vídeos desta música
00:00 / 00:00
Automático

Cifra Club Pro

Aproveite o Cifra Club com benefícios exclusivos e sem anúncios
Cifra Club Pro
Aproveite o Cifra Club com benefícios exclusivos e sem anúncios
OK