Cifra Club

Aprenda

No Warning Shot

Six Feet Under

Tab de baixo: Principal
Já pensou em usar uma coleção de roupas do Cifra Club? Responda as perguntas abaixo e nos ajude nessa missão! →
Tuning - C


Intro
|-------------------------------|
|-------------------------------|
|-------------------------------|
|3--------------3-----------12--|


|-----------------|
|-----------------|
|----55556666-----|x2
|3333--------5555-|


|----------------|
|----------------|
|0~--3~--1~--4~--|x4
|----------------|


|--------------------------------|
|--------------------------------|
|--------------------------------|
|10-------------10-----------12--|


|----------------------------|
|----------------------------|
|--------------10------------|x4
|10-000-43-000----000-43-000-|


|--------------------------|
|--------------------------|
|-------------------10-----|x4
|10-00000000-10-000----000-|


|----------------------|
|----------------------|
|----------------------|
|5---7---3---5---3---2-|


|----------------------------------------------|
|----------------------------------------------|
|-------------------------------------2~--3~---|x2
|2-2-2-x-2-2-2-2-2-x-2-2-2-2-2-x-2-2-----------|


|----------------------------------------------|
|----------------------------------------------|
|-------------------------------------4~--5~---|x2
|4-4-4-x-4-4-4-4-4-x-4-4-4-4-4-x-4-4-----------|


|---------------------|
|---------------------|
|---------------------|
|1-0------1-0---4-3---|


|---------------------|
|---------------------|
|---------------1-0---|
|1-0------1-0---------|
Composição de Chris Barnes / Geezer Butler / Greg Gall
173 exibições

0 comentários

Ver todos os comentários

Conseguiu tocar?

0 Tocaram 0 Ainda não

Grave um vídeo tocando No Warning Shot e nos envie!

00:00 / 00:00
Outros vídeos desta música
Repetir Qualidade Automático
Outros vídeos desta música
00:00 / 00:00
Automático

Cifra Club Pro

Aproveite o Cifra Club com benefícios exclusivos e sem anúncios
Cifra Club Pro
Aproveite o Cifra Club com benefícios exclusivos e sem anúncios
OK