Cifra Club

Aprenda

I've Been Waiting

Sixpence None The Richer

Cifra: Principal (violão e guitarra)
tom: Bb
Intro 2x:

    Gm      Eb      Bb     F        Gm     Eb         Bb  F
E|-----------------------------------------------------------|
B|--------6-8--6-------------------------6-8--6--------------|
G|--7-5-7---------7-5-7----5--------7-5-7---------7---5-7-5--|
D|-----------------------3-----------------------------------|
A|-----------------------------------------------------------|
E|-----------------------------------------------------------|

      Gm      Eb     Bb
So I'm waiting by a phone
         F      Gm
for the blessed ring
       Eb     Bb
like a holy grail
      F     Gm
for a fisher king
        Eb        Bb
time is ticking down
      F    Gm
like a metronome
        Eb     Bb             F         Eb
rhythm for my brain and its ceaseless games
        C7                            F
I never seem to play them to the beat I hear
           Eb                 Cm        F       Bb
thought my heart beat is a beat that beats so near

( Gm  Eb  Bb  F )

    Gm      Eb      Bb     F
E|------------------------------|
B|--------6-8--6----------------|
G|--7-5-7---------7-5-7----5----|
D|------------------------------|
A|-----------------------8------|
E|------------------------------|

     Gm      Eb        Bb              F      Gm
so we had a talk last night about the heavy blow
         Eb        Bb                F     Gm
that you dealt in fright you're back against the wall
 Gm     Eb        Bb             F      Gm
it was a puzzle piece important to the whole
         Eb     Bb              F       Eb
that I may not find to place within that hole
          C7                            F
I never seem to put them in the gaps I see
         Eb             Cm       F      Bb
like a puzzle where the pieces lost to me

       Bb            Cm
so I'm changing who I am
       F               Bb
'cause what I am's not good
       Gm7            Cm
and I know you love me now
       F               Bb
but I don't see why you should
       Gm7            Cm
and I don't see why you should
       F               Bb
no, I don't see why you should

( Gm  Eb  Bb  F ) 2x

    Gm      Eb      Bb     F        Gm     Eb         Bb  F
E|-----------------------------------------------------------|
B|--------6-8--6-------------------------6-8--6--------------|
G|--7-5-7---------7-5-7----5--------7-5-7---------7---5-7-5--|
D|-----------------------------------------------------------|
A|-----------------------8-----------------------------------|
E|-----------------------------------------------------------|

      Gm      Eb     Bb
so I drift into the air
         F      Gm
like a moth to light
       Eb     Bb            F     Gm
down the boulevard to the coffee shop
       Eb        Bb           F      Gm
in the land of sorrow in the land of wait
          Eb      Bb            F        Eb
I fear is bearing down on this lonely town
         C7                         F          Eb
I never seem to write them down as good as him
           Cm              F            Bb
like I somewhere lost the keys that let me in

Refrão:

       Bb            Cm
so I'm changing who I am
       F               Bm
'cause what I am's not good
       Gm7            Cm
and I know you love me now
       F               Bm
but I don't see why you should
       Gm7            Cm
so I'm changing who I am
       F               Bm
'cause what I am's not good
       Gm7            Cm
and I know you love me now
       F               Bm
but I don't see why you should
       Gm7            Cm
and I don't see why you should
       F               Bm
no, I don't see why you should
Composição de Matt Slocum
Colaboração e revisão:
  • Junior Lima
  • AlanLawra SCCP
836 exibições
    • ½ Tom
    • A
    • Bb
    • B
    • C
    • Db
    • D
    • Eb
    • E
    • F
    • F#
    • G
    • Ab
  • Adicionar à lista

    0 comentários

    Ver todos os comentários

    Conseguiu tocar?

    3 Tocaram 0 Ainda não

    Grave um vídeo tocando I've Been Waiting e nos envie!

    00:00 / 00:00
    Outros vídeos desta música
    Repetir Qualidade Automático
    Outros vídeos desta música
    00:00 / 00:00
    Automático

    Cifra Club Pro

    Aproveite o Cifra Club com benefícios exclusivos e sem anúncios
    Cifra Club Pro
    Aproveite o Cifra Club com benefícios exclusivos e sem anúncios
    OK