Notificações Amigos pendentes

      Sixpence None The Richer

      There She Goes

      37.573 exibições
      Tom: A
      Intro:
       Guitar 1: A E D2 
       A  E  D2
       Guitar 2: A Amaj7 E Esus  D2
      
      A     E   D#
      There she goes
      A         E     D#
      There she goes again
      A      E          D#
      Racing through my brain
          Bm     A        D#
      And I just can't contain
           Bm      A      D#    E
      This feeling that remains
      
      A     E   D#
      There she goes
      A         E     D#
      There she goes again
      A       E          D#
      Pulsing through my vein
          Bm     A        D#
      And I just can't contain
           Bm      A      D#    E
      This feeling that remains
      
       A  E  D#  A  E   D#  A  E  D#  Bm   A  D#
      
      
      E|---------------------------------------------------------------------
      B|--0---------------0---------------0--------------0------------000000-
      G|2---1-2-------2-2---1-2---------2---1-2--------2--2---2--2--2--------
      D|-2-2-2-2424242-2-2-2-2-242424242-2-2-2-24242424----424--4--4---------
      A|---------------------------------------------------------------------
      E|---------------------------------------------------------------------
      
      
       A  E  D2      A   E    D2       A    E     D2      Bm    A     D2         Bm    A      D2
      
      
      E|-------------------------------------------------------------------------------------
      B|--0---------------0---------------0--------------0------0--------0------------000000-
      G|2---1-2-------2-2---1-2---------2---1-2--------2---2--2---2--2-2--2---2--2--2--------
      D|-2-2-2-2424242-2-2-2-2-242424242-2-2-2-24242424---2-44---2-44-4----424--4--4---------
      A|-------------------------------------------------------------------------------------
      E|-------------------------------------------------------------------------------------
      
      
      A     E   D#
      There she goes
      A         E     D#
      There she goes again
      A      E          D#
      Racing through my brain
          Bm     A        D#
      And I just can't contain
           Bm      A      D#      E
      This feeling that remains
      
      (A)  (E)  D#
      There she goes
      (A)      (E)    D#
      There she goes again
          E        A
      She calls my name
          E        A
      She pulls my train
      E      A          E       D#
      No one else could heal my pain
      
      
           Bm    A    D#        Bm    A     D#
      E|--------------------------------
      B|-000000--00-!------------000000-  /!
      G|-------2---242----2-2-2-2-------  4/ = slide 3->4
      D|4-------4-----42-4-4-4-4--------
      A|--------------------------------
      E|--------------------------------
      
      
          Bm     Esus     D#
      And I just can't contain
           Bm      Esus   D#
      This feeling that remains
      
      A     E   D#
      There she goes
      A         E     D#
      There she goes again
      A       E       D#
      Chasing down my lane
          Bm     A        D#
      And I just can't contain
           Bm      A      D#
      This feeling that remains
      
      A     E    D# D# D#
      There she goes
      A     E    D# D# D#
      There she goes
      A     E    D# D# D#  A
      There she goes
        Composição: Lee MaversColaboração e revisão:
        • Ryuno
        • Juliana M.
        • vitormanganelli
        • Lipe
        • Rachel
        • +1

        Comentários 0

        140 .
        140 cancelar

        conseguiu tocar?

        covers

        Grave um vídeo tocando There She Goes e mande pra gente!

        Ex.: http://www.youtube.com/watch?v=0IvSvIwGdwk
        ver covers de outras músicas »
        0:00 / 0:00

        Capítulos

          3 versões de Guitar Proformatodownloadscontribuição
          play/pausefechar subir/descer velocidade
          6ª corda E5ª corda A4ª corda D3ª corda G2ª corda B1ª corda E
            acordes
            publicidade
            fechar
            ok