Cifra Club

Amores Imperfeitos

Skank

Tab de baixo: Principal
exibições 184
Intro:
G|------------------------------------------------
D|------------------------------------------------
A|------------------------------------------------
E|--33---33---33---111----3-----------------------

Não precisa me lembrar...
G|---------------------------------
D|---------------------------------
A|---------------------------------
E|--3-3-3-3-3h5-1--1-1-1-1-0-0-0-0-

Mas sempre fica alguma coisa...     Sei que amores imperfeitos...
G|--------------------------------- -----------------------------
D|--------------------------------- -----------------------------
A|--------------------------------- ----------2-3-3-5-5----------
E|--3-3-3-3-3h5-1--1-1-1-1-0-0-0-0- 5-5-5-5-5-----------3--------

Eu não quero ver você...
G|---------------------------------
D|---------------------------------
A|---------------------------------
E|--3-3-3-3-3h5-1--1-1-1-1-0-0-0-0-

E quando o dia terminar...          Sei que amores imperfeitos...
G|--------------------------------- -----------------------------
D|--------------------------------- -----------------------------
A|--------------------------------- ----------2-3-3-5-5----------
E|--3-3-3-3-3h5-1--1-1-1-1-0-0-0-0- 5-5-5-5-5-----------3--------

Mentira se eu disser...
G|--------------------------------------------
D|--------------------------------------------
A|--------------------------------------------
E|--5-5-5-5-5-5-5-5-5-5-5-5-3-3-3-3-3-3-3-3-3-3

G|--------------------------------------------
D|--------------------------------------------
A|--5-5-5-5-5-5-5-5-5-5-5-5-3-3-3-3-3-3-3-3-3-3
E|--------------------------------------------

G|----------------------------------------
D|----------------------------------------
A|---------------------3-3-3-3-3-3-3-3-3-3
E|-3-3-3-3-3-3-3-3-3-3--------------------
Composição: Chico Amaral / Samuel RosaColaboração e revisão:
  • Cauê Coutinho

0 comentários

    mostrar mais comentários

    Conseguiu tocar?

    0tocaram0ainda não

    Grave um vídeo tocando Amores Imperfeitos e mande pra gente!

    00:00 / 00:00
    outros vídeos desta música
    repetirqualidadeautomática
    Outro vídeos desta música
      00:00 / 00:00
      automática
      OK