Cifra Club

É Uma Partida de Futebol

Skank

Cifra: Principal
exibições 384.940
Tom: A
Intro 4x: A  D5  G  A  A7(9+)

Parte 1 de 3
    A                  D5
E|-----------------------------------------|
B|-2-2---2------------3-3-x--3---3-3-3-----|
G|-2-2-x-2------------2-2-x--2---2-2-2-----|
D|-2-2-x-2------------0-0-x--0---0-0-0-----|
A|-0-0-x-0---0-3h4-------------------------|
E|-----------------------------------------|

Parte 2 de 3
    G                 A   A7(9+)
E|-----------------------------------------|
B|-------------------2---13----------------|
G|-0-0-x-0-----------2---12----------------|
D|-0-0-x-0-----------2---11----------------|
A|-2-2-x-2-----------0---0-----------------|
E|-3-3-x-3--0-3/4-------------------------|

Parte 3 de 3
    G                 A   A7(9+)
E|-----------------------------------------|
B|-------------------2---13-13-------------|
G|-0-0-x-0-----------2---12-12-------------|
D|-0-0-x-0-----------2---11-11-------------|
A|-2-2-x-2-----------0---0--0--------------|
E|-3-3-x-3--0-3/4-------------------------|


Refrão:

 A
Bola na trave não altera o placar

Bola na área sem ninguém pra cabecear

Bola na rede pra fazer o gol
      G
Quem não sonhou
                          A
Em ser um jogador de futebol


Primeira Parte:

      A
A bandeira no estádio é um estandarte

A flâmula pendurada na parede do quarto

O distintivo na camisa do uniforme
     G                                A
Que coisa linda é uma partida de futebol


Segunda Parte 2x: A  D  E

Parte 1 de 3
    A
E|-----------------------------------------|
B|-2-2-x---------2-2-----------------------|
G|-2-2-x---------2-2-----------------------|
D|-2-2-x---------2-2-----------------------|
A|-0-0-x--4-4-4--0-0-----------------------|
E|-----------------------------------------|

Parte 2 de 3
    D
E|-2-2-x---------2-2-----------------------|
B|-3-3-x---------3-3-----------------------|
G|-2-2-x---------2-2-----------------------|
D|-0-0-x--4-4-4--0-0-----------------------|
A|-----------------------------------------|
E|-----------------------------------------|

Parte 3 de 3
    E
E|-0-0-----------0-0-----------------------|
B|-0-0-----------0-0-----------------------|
G|-1-1-x---------1-1-----------------------|
D|-2-2-x---------2-2-----------------------|
A|-2-2-x---------2-2-----------------------|
E|-0-0-x--4-4-4--0-0-----------------------|


Repete a Primeira Parte:

 A
Posso morrer pelo meu time

Se ele perder, que dor, imenso crime

Eu posso chorar se ele não ganhar

Mas se ele ganha não adianta
           G                        A
Não há garganta que não pare de berrar
      A
A chuteira veste o pé descalço

O tapete da realeza é verde

Olhando pra bola eu vejo o Sol
        G
Está rolando agora 
                      A
É uma partida de futebol

        A
O meio campo é o lugar dos craques

Que vão levando o time todo pro ataque

O centroavante, o mais importante
           G                          A
Que emocionante é uma partida de futebol

Segunda Parte 4x: A  D  E
Repete a Intro 2x:  A  D5  G  A  A7(9+)

Repete a Primeira Parte:

         A
O meu goleiro é um homem de elástico

Os dois zagueiros têm a chave do cadeado

Os laterais fecham a defesa
           G                         A
Mas que beleza é uma partida de futebol


Repete o Refrão:

 A
Bola na trave não altera o placar

Bola na área sem ninguém pra cabecear

Bola na rede pra fazer o gol
      G
Quem não sonhou
                          A
Em ser um jogador de futebol


Repete a Primeira Parte:

        A
O meio campo é o lugar dos craques

Que vão levando o time todo pro ataque

O centroavante, o mais importante
           G                          A
Que emocionante é uma partida de futebol


Repete a Segunda Parte 16x: A  D  E
Acordes para:

    0 comentários

      mostrar mais comentários

      Conseguiu tocar?

      22tocaram3ainda não

      Grave um vídeo tocando É Uma Partida de Futebol e mande pra gente!

      00:00 / 00:00
      outros vídeos desta música
      repetirqualidadeautomática
      Outro vídeos desta música
        00:00 / 00:00
        automática
        Capítulos
        • Tocando a Música
        • Dicas iniciais / Equipamentos
        • Acordes da música
        • Introdução
        • Ensinando Introdução - Parte 1 de 3
        • Ensinando Introdução - Parte 2 de 3
        • Ensinando Introdução - Parte 3 de 3
        • Dicas Primeira Parte e Refrão
        • Primeira Parte e Refrão
        • Ensinando Ritmo Primeira Parte e Refrão
        • Dicas Segunda Parte
        • Segunda Parte
        • Ensinando Segunda Parte
        • Dicas Finais/ Encerramento
        • Ficha Técnica
        OK