Cifra Club

Ela Me Deixou

Skank

Tab de baixo: Principal
exibições 682
G-------------------------
D-------------------------
A----4--7--5--------7-7---
E-5-----------5--8------8-

G-------------------------
D-------------------------
A----2--5--3--------5-5---
E-3-----------3--6------6-

G---------------------------
D---------------------------
A----5--9--7---------9-9----
E-7-----------7--10------10-

G-------------------------
D-------------------------
A----4--7--5--------7-7---
E-5-----------5--8------8-

O farol do morro...
G-----------------------------
D-----------------------------
A-3-3-3-3-3-3-0-0-0-0-0-0-0-0-
E-----------------------------

Que nenhuma onda tem...
G-0-0-0-0-0-0-0-0-0-0-0-0-0-0-
D-----------------------------
A-----------------------------
E-----------------------------
Colaboração e revisão:
  • thyago

0 comentários

    mostrar mais comentários

    Conseguiu tocar?

    1tocaram0ainda não

    Grave um vídeo tocando Ela Me Deixou e mande pra gente!

    00:00 / 00:00
    outros vídeos desta música
    repetirqualidadeautomática
    Outro vídeos desta música
      00:00 / 00:00
      automática
      OK