Cifra Club

Estare Prendido En Tus Dedos

Skank

Tab de baixo: Principal
exibições 2.243
O baixo é composto por apenas algumas frases que se repetem ao longo da música.
O momento em que cada frase aparece pela primeira vez está indicado entre parênteses.
Tempo (+) e contratempo (-) estão indicados numa das cordas que não é usada.
É isso. Parabéns ao Lelo Zanetti, parabéns ao Cifraclub e parabéns a nós, baixistas!

Introdução (0:00):

G:+-+-+-+-+-+-+-+-|
D:----------------|
A:--------35553555|
E:3--33--3--------|

Para a vida ...(0:20)

G:+-+-+-+-+-+-+-+-|
D:---5-35--5-3----|
A:----5-----5-553-|
E:3--------------5|

Estare ...(1:11)

G:+-+-+-+-+-+-+-+-|----3333----3-3-|
D:----------------|1--1----1--1-1--|
A:----3333----3333|----------------|
E:1--1----1--1----|+-+-+-+-+-+-+-+-|

Preparação...(1:24)

G:+-+-+-+-+-+-+-+-|
D:----------------|
A:5--5-35-3--3--3-|
E:----5-------35--|

Diablo y mar ...(2:34)

G:+-+-+-+-+-+-+-+-|+-+-+-+-+-+-+-+-|+-+-+-+-+-+-+-+-|+-+-+-+-+-+-+-+-|
D:5—-5-35---------|--------3--3--3-|----------------|--------3--3--3-|
A:----5---5--5-35-|6--6-36-----35--|3--3--3-5--5-35-|6--6-36-----35-5|
E:------------5---|----6-----------|----35------5---|----6-----------|

G:+-+-+-+-+-+-+-+-|+-+-+-+-+-+-+-+-|+-+-+-+-+-+-+-+-|+-+-+-+-+-+-+-+-|
D:5—-5-35---------|--------3--3--3-|----------------|----------------|
A:----5---5--5-35-|6--6-36-----35--|3--3--3-5--5-35-|6--6-36-6--6-363|
E:------------5---|----6-----------|----35------5---|----6-------6---|

Finalização ...(3:54)

G:+-+-+-+-+-+-+-+-|
D:-------355555555|
A:----235---------|
E:3--5------------|

Composição: Chico Amaral / StingColaboração e revisão:
  • Mário Júnior

0 comentários

    mostrar mais comentários

    Conseguiu tocar?

    0tocaram0ainda não

    Grave um vídeo tocando Estare Prendido En Tus Dedos e mande pra gente!

    00:00 / 00:00
    outros vídeos desta música
    repetirqualidadeautomática
    Outro vídeos desta música
      00:00 / 00:00
      automática
      OK