Cifra Club

Vamos Fugir

Skank

Tab de baixo: Principal
exibições 43.076
Intro: (x2)

|-----------------------------------------------------|
|-----------------------------------------------------|
|--9-9-9-9-9-9-9-9-9-9-7-7-7-7-7-7-7-7-7-7--|
|-----------------------------------------------------|


Verso: 

|------------------|
|------------------|
|------------------|
|-5-5--5-5--5-5-|


Essa parte toca 2 vezes:
|---------------------------------------------------------------------------- |
|---------------------------------------------------------------------------- |
|-7-7--7-7--7-7--7-7--9-9---9-9-9---5-5-5---7-7-7---9-9-9-9-9-9--|
|---------------------------------------------------------------------------- |

Refrão: (x4)

|------------------------------------------------------|
|----------------------------------------------------- |
|-------------7-7-7-7-7--5-5-5-5-5--5-5-5-5-5--|
|-5-5-5-5-5-----------------------------------------|


Obs.: A Intro e os Versos você toca com batidas lentas, 
no refrão você junta mais uma batida da outra.

A ordem você pega com a música...


	>> Tab. por Yuri <<


_______________________________________________________
Contribuição: Yuri Souza de Jesus(yurisj@gmail.com)

0 comentários

    mostrar mais comentários

    Conseguiu tocar?

    5tocaram0ainda não

    Grave um vídeo tocando Vamos Fugir e mande pra gente!

    00:00 / 00:00
    outros vídeos desta música
    repetirqualidadeautomática
    Outro vídeos desta música
      00:00 / 00:00
      automática
      OK