Enviar cifraEntrar

18 And Life

Skid Row

Cifra: Principal
exibições 221.164
Tom: E
Introdução: C#m  A5(9)  B5(11)
            C#m  A5(9)  B5(11)
(Guitarra Base)


E|-----------------------------------------
B|---5-----4-----------5-----4-------------
G|-----6-----4-----------6-----4-----------
D|-------6-----4-----------6-----4---------
A|-4-------------4h6-4---------------------
E|---------------------------------7-------


E|---------------------0-------0-----------
B|---5-----4-----------0-------0-----------
G|-----6-----4---------2-------4-----------
D|-------6-----4\----2-------4-------------
A|-4---------------0-------2---------------
E|-----------------------------------------


E|-----------------------------------------
B|---5-----4-----------5-----4-------------
G|-----6-----4-----------6-----4-----------
D|-------6-----4-----------6-----4---------
A|-4-------------4h6-4---------------------
E|---------------------------------7-------


E|---------------------0-------0-----------
B|---5-----4-----------0-------0-----------
G|-----6-----4---------2-------4-----------
D|-------6-----4\----2-------4-------------
A|-4---------------0-------2---------------
E|-----------------------------------------



Primeira Parte:
(Guitarra Base)


E|-----------------------------------------
B|---5-----4-----------5-----4-------------
G|-----6-----4-----------6-----4-----------
D|-------6-----4-----------6-----4---------
A|-4-------------4h6-4---------------------
E|---------------------------------7-------


E|---------------------0-------0-----------
B|---5-----4-----------0-------0-----------
G|-----6-----4---------2-------4-----------
D|-------6-----4\----2-------4-------------
A|-4---------------0-------2---------------
E|-----------------------------------------


(Guitarra Solo)

         P.M

E|-----------------------------------------
B|---------------------------5~~-----------
G|---------------------------4~~-----------
D|-\--2------4------4/6~~----2~~-----------
A|-\--0--0-0-2------2/4~~----4~~-----------
E|-\------------/4~------------------------



 C#m
Ricky was a young boy

He had a heart of stone

Lived nine to five and worked
     A5             B5
His fingers to the bone
(Guitarra Base)


E|-----------------------------------------
B|---5-----4-----------5-----4-------------
G|-----6-----4-----------6-----4-----------
D|-------6-----4-----------6-----4---------
A|-4-------------4h6-4---------------------
E|---------------------------------7-------


E|-----------------------------------------
B|---5-----4-------------------------------
G|-----6-----4-----------------------------
D|-------6-----4\--2---4-------------------
A|-4---------------0---2-------------------
E|------------------------/4~--------------



C#m
    Just barely out of school

Came from the edge of town

Fought like a switchblade so no
A5                  B5
One could take him down

Ponte:
     P.M . . .       . . . . .

E|-----------------------------------------
B|-----------------------------------------
G|-----------------------------------------
D|-2-2-2-2-2-2-2---------------------------
A|-0-0-0-0-0-0-0---4-4-4-4-4-4--2-4--------
E|---------------4-2-2-2-2-2-2--0-2--------


     P.M . . .

E|-----------------------------------------
B|-----------------------------------------
G|-----------------2---2-----4---4---------
D|-----------------2-2---2-2-4-4---4-------
A|-6-6-6-6-6-6-4-6-0-----0-0-2-------------
E|-4-4-4-4-4-4-2-4-------------------------



A5                       F#5
   He had no money, oooh     no good at home
    G#5
He walked the streets as a soldier
        A5                B5
And he fought the world alone

And now it's

Primeiro Refrão:

E|-----------------------------------------
B|-----------------------------------------
G|-----6-------2-----------------4---------
D|---6---6---2-----------2-----4---4-------
A|-4-------0-----0h2---2---2-2-------------
E|-------------------0---------------------


E|-----------------------------------------
B|-----------------------------------------
G|-----6-------2-----------------4---------
D|---6---6---2-----------2-----4---4-------
A|-4-------0-----0h2---2---2-2-------------
E|-------------------0---------------------



C#5               A5
    Eighteen and life you got it
E5               B5
   Eighteen and life you know
C#5                A5
    Your crime is time and it's
E5               B5
   Eighteen and life to go

E|-----------------------------------------
B|-----------------------------------------
G|-----6-------2-----------------4---------
D|---6---6---2-----------2-----4---4-------
A|-4-------0-----0h2---2---2-2-------------
E|-------------------0---------------------


E|-----------------------------------------
B|-----------------------------------------
G|-----6-------2-----------------4---------
D|---6---6---2-----------2-----4---4-------
A|-4-------0-----0h2---2---2-2-------------
E|-------------------0---------------------



C#5               A5
    Eighteen and life you got it
E5               B5
   Eighteen and life you know
C#5                A5
    Your crime is time and it's
E5               B5
   Eighteen and life to go

( C#m )
Riff 1:

(Guitarra Solo 1)

E|---------------------------------------------------
B|---------------------------------------------------
G|-11h13p11\9h11p9\8\6~~-----------------------------
D|---------------------------------------------------
A|---------------------------------------------------
E|---------------------------------------------------


(Guitarra Solo 2)

E|---------------------------------------------------
B|---------------------------------------------------
G|---------------------------------------------------
D|-13h14p13\9h11p9\7\6~~-----------------------------
A|---------------------------------------------------
E|---------------------------------------------------



Segunda Parte:
(Guitarra Solo)
   P.M     . .      . .     .      .

E|-----------------------------------------
B|------5~------4~-------5~----4~----------
G|------4~------4~-------4~----4~-----4~~--
D|-6-6--6~-6-6--6~--6-6--6~-6--6~--6--4~~--
A|-4-4-----4-4------4-4-----4------4-------
E|-----------------------------------------


   P.M     . .         . .

E|-----------------------------------------
B|------5~------4\-------------------------
G|------4~------4\--2------4---------------
D|-6-6--6~-6-6--6\--2------4---------------
A|-4-4-----4-4------0--0-0-2---------------
E|---------------------------/4~~----------



C#m
    Tequila in his heartbeat

His veins burned gasoline

It kept his motor running
A5(9)            B5(11)
   But it never kept him clean
   P.M      . .      . .   .   .

E|-----------------------------------------
B|-----5~~------4~~------5---4-------------
G|-----4~~------4~~------4---4---4~~-------
D|-----2~~------2~~------2---2-------------
A|-4-4-4~~--4-4-4~~--4-4-4-4-4-4-----------
E|-----------------------------------------


   P.M      . .        . .

E|-----------------------------------------
B|-----5~~------4\-------------------------
G|-----4~~------4\--2------4---------------
D|-----2~~------2\--2------4---------------
A|-4-4-4~~--4-4-4\--0--0-0-2---------------
E|---------------------------/4~~----------



C#m7                      C#m7(9)
     They say he loved adventure
     C#m7     C#m7(9)
"Ricky's the wild one"
C#m7                    C#m7(9)
     He married trouble
           A5               B5
And had a courtship with a gun

Ponte:
A5
   Bang bang shoot 'em up
     F#5
The party never ends
 G#5
You can't think of dying
          A5                  B5
When the bottle's your best friend

And now it's

Segundo Refrão:
C#5               A5
    Eighteen and life you got it
E5               B5
   Eighteen and life you know
C#5                A5
    Your crime is time and it's
E5               B5
   Eighteen and life to go

C#5               A5
    Eighteen and life you got it
E5               B5
   Eighteen and life you know
C#5                A5
    Your crime is time and it's
E5               B5      C#5
   Eighteen and life to go
Riff 2:

E|-/12~~--14p12-14b16~~------------------------------
B|---------------------------------------------------
G|---------------------------------------------------
D|---------------------------------------------------
A|---------------------------------------------------
E|---------------------------------------------------


Interlúdio:


E|-----------------------------------------
B|-----------------------------------------
G|-----------------------------------------
D|-----------------4----------2-----------4
A|-2--2-----2h4-2--2--2h4-2---0----0---0--2
E|-0--0-2-4-----------------4----4---4-----



 E5
"Accidents will happen"
     B5
They all heard ricky say
    A5
He fired his six-shot to the wind
       B5
That child blew a child away

Solo: C#5  A5  E5  B5
                            H.A     H.A

E|---------------------------------------------------
B|---------------------------------------------------
G|----8/9------8/9------8/9-9b11~~-b11r9p8----8/9----
D|-9~-----11~~-----11~~--------------------9~-----11~
A|---------------------------------------------------
E|-7~------------------------------------------------


                                            \1

E|---------------------------------------------------
B|----9-12-9-12b14~~-b14r12p9------------------------
G|----------------------------11/13~-14p13/11---9\8~-
D|-x-------------------------------------------------
A|-x-------------------------------------------------
E|-x-------------------------------------------------


  H.A \1

E|---------------------------------------------------
B|-0------------9h10h12-10~-12/14\12p10p9------------
G|-------8h9h11---------------------------11p9p8h9p8~
D|---------------------------------------------------
A|---------------------------------------------------
E|---------------------------------------------------


E|----------------9~~---12b14r12p9-12~~--------------
B|-----------9h12------------------------------------
G|------9h11-----------------------------------------
D|-9h11----------------------------------------------
A|---------------------------------------------------
E|---------------------------------------------------


E|19-16h17p16h17p16---------------------------------
B|-------------------19-17p16h17p16h17p16------------
G|----------------------------------------16-14h16p14
D|---------------------------------------------------
A|---------------------------------------------------
E|---------------------------------------------------


E|-------19b21~~-------------------------------------
B|---------------------------------------------------
G|-h16p14--------------------------------------------
D|---------------------------------------------------
A|---------------------------------------------------
E|---------------------------------------------------



Refrão Final:
C#5               A5
    Eighteen and life you got it
E5               B5
   Eighteen and life you know
C#5                A5
    Your crime is time and it's
E5               B5
   Eighteen and life to go

C#5               A5
    Eighteen and life you got it
E5               B5
   Eighteen and life you know
C#5                A5
    Your crime is time and it's
E5               B5      C#5
   Eighteen and life to go


Solo Final: C#5  A5  E5  B5
E|---------------------------------------------------
B|---------------------------------------------------
G|/9\8----------------------/9\8---------------------
D|-----9~--9/11\6~--6/7\4~~------9~--9/11\6~--6/7\4~-
A|---------------------------------------------------
E|---------------------------------------------------


E|--------------9-11-12~~-11-------------------------
B|---------9h12--------------12~-12/14---------------
G|----9h11-----------------------------13~--13h14-11~
D|11------------------------------------------------
A|---------------------------------------------------
E|---------------------------------------------------


E|-------14p12\11----11h12--11-----------------------
B|-14p12----------12-----------12~~-12h14------------
G|----------------------------------------13~~-------
D|---------------------------------------------------
A|---------------------------------------------------
E|---------------------------------------------------


   P.M.     .  .     .  .

E|-------12-------12---------------------------------
B|-------12-------12-------------12------------------
G|-13-13-13-11-11-11-11-11-11b13----b13r11-9~~-------
D|---------------------------------------------------
A|---------------------------------------------------
E|---------------------------------------------------



( C#5 )
  • 1
  • 2
  • 3
  • 4
  • 5
  • 6
  • 7
  • 8
  • 9
  • 10
  • 11
  • 12
    Acordes para:

      0 comentários

        mostrar mais comentários

        Conseguiu tocar?

        35tocaram1ainda não

        Grave um vídeo tocando 18 And Life e mande pra gente!

        00:00 / 00:00
        outros vídeos desta música
        repetirqualidadeautomática
        • automática
        Outro vídeos desta música
          Capítulos
          • Início
          • Tocando a música
          • Configuração dos Efeitos
          • Acordes da Introdução e Primeira Parte
          • Tocando Introdução e Primeira Parte
          • Ensinando Introdução - Guitarra Base
          • Ensinando Primeira Parte - Guitarra Solo
          • Acordes da Ponte
          • Tocando Ponte
          • Ensinando Ponte
          • Tocando Primeiro Refrão
          • Ensinando Refrão
          • Ensinando Riff 1 - Guitarra 1
          • Ensinando Riff 1 - Guitarra 2
          • Tocando Segunda Parte
          • Ensinando Segunda Parte - Guitarra Solo
          • Tocando Ponte e Segundo Refrão
          • Ensinando Riff 2
          • Tocando Interlúdio
          • Ensinando Interlúdio
          • Tocando Solo
          • Ensinando Solo - Parte 1
          • Ensinando Solo - Parte 2
          • Ensinando Solo - Parte 3
          • Ensinando Solo - Parte 4
          • Tocando Solo (Lento)
          • Tocando Final
          • Ensinando Solo Final
          • Encerramento
          00:00 / 00:00
          automática
          • automática
          fecharplay/pause subir/descer velocidade
            acordes
            fechar
            OK
            Feedback