Charlie Big Potato Solo

Skunk Anansie

Album: Post Orgasmic Chill

Tabbed by Matt Langdale (*)


This is a tab for the Quiet parts in the track because i've never found a tab
that got close to being right. I've got a Live version where the bass is high
in the mix so i'm certain it's 100% accurate. Ties your fingers in knots at
first but is a cool lick once you get it down. You can pick it out on the
album version too just not as clear and it has an effect on it.


play 3x

G|--13-----14-13-11----13---------||
D|-----14-----------14----13-14---||
A|--------------------------------||
H|--------------------------------||




G|--13-----14-13-11-----13-11-------11---------------------||
D|-----14-----------14--------14-13----14-13-11-14-13-11---||
A|---------------------------------------------------------||
H|---------------------------------------------------------||
Página 1 / 1

Letras e título
Acordes e artista

resetar configurações
OK