Cifra Club

Aprenda

30 Years To Life

Slash

Cifra: Principal (violão e guitarra)
tom: B (forma dos acordes no tom de C) Afinação: Eb Ab Db Gb Bb Eb
Intro:
Eb|---------------------------------------------------------------------------|
Bb|-0\-/8\-/3-3\-/10\-/5\-0~-------------0\-/8\-/3-3\-/10\-/5/12\0------------|
Gb|-0\-/8\-/3-3\-/10\-/5\-0~-5\0-5-0-5~--0\-/8\-/3-3\-/10\-/5/12\0------------|
Db|-0\-/8\-/3-3\-/10\-/5\-0~-5\0-5-0-5~--0\-/8\-/3-3\-/10\-/5/12\0------------|
Ab|---------------------------------------------------------------------------|
Eb|---------------------------------------------------------------------------|

Riff:
Eb|-------------------------------11-10-------------------------------------------|
Bb|-------------------------11-13-------13-11-11-13-11-13-11-11-------11-10-------|
Gb|-12-12-10-12-12-10-12-12-------------------------------------10-12-------12-10-|
Db|-------------------------------------------------------------------------------|
Ab|-------------------------------------------------------------------------------|
Eb|-------------------------------------------------------------------------------|

Eb|-------------------------------------------------------------------------------|
Bb|----------------------------13b15r13-11----------------------------------------|
Gb|-10-12-10-10-12-10-10-12-10-------------12-12-10-12-12-10-12-12-10-------------|
Db|-------------------------------------------------------------------12-10-8-----|
Ab|---------------------------------------------------------------------------10--|
Eb|-------------------------------------------------------------------------------|

Eb|-------------------------------------------------------------------------------|
Bb|----------------------------13b15r13-11----------------------------------------|
Gb|-10-12-10-10-12-10-10-12-10-------------12-12~-12-10-------------12/0----------|
Db|-----------------------------------------------------12-10-8-----12/0----------|
Ab|-------------------------------------------------------------10----------------|
Eb|-------------------------------------------------------------------------------|

Harmony:
Eb|-------------------------10-11-15-13-11-10-10-8-10-8-10-10-------10-8-7--------|
Bb|-12-12-10-12-12-10-12-12-----------------------------------10-12--------10-10--|
Gb|-------------------------------------------------------------------------------|
Db|-------------------------------------------------------------------------------|
Ab|-------------------------------------------------------------------------------|
Eb|-------------------------------------------------------------------------------|

Eb|-------------------------------------------------------------------------------|
Bb|-8-10-10-8-10-10-8-10-13b15r13-11----------------------------------------------|
Gb|-----------------------------------12-12~-12-10------------12/0----------------|
Db|------------------------------------------------12-10-8----12/0----------------|
Ab|-------------------------------------------------------------------------------|
Eb|-------------------------------------------------------------------------------|

Verse:
Eb|------------------------------------------------------------------------------|
Bb|------------------------------------------------------------------------------|
Gb|---8----3----5----------------------------------------------------------------|
Db|---8~-3-3~---5~---------------------------------------------------------------|
Ab|-5-6~-1-1~-3-3~-5-------------------------------------------------------------|
Eb|-3---------1----3-------------------------------------------------------------|

Ponte:
Eb|--------------------------------------------------------------------------------------|
Bb|--------------------------------------------------------------------------------------|
Gb|--------------------------------------------------------------------------------------|
Db|-5/7-8-----8---8-3-------------------5/7-8-----8-8-3----------------------------------|
Ab|-3/5-6-6-6-6-6-6-1p0-5-----5---5-----3/5-6-6-6-6-6-1p0----------1-------3-1-0---1p0---|
Eb|---------------------3-3-3-3-3-3-3-3--------------------3-3-1-3---3-1-3-------3-----3-|
      PM---------|     PM------------|     PM------|

Eb|--------------------------------------------------------------------------------------|
Bb|--------------------------------------------------------------------------------------|
Gb|-------------------------------------------------------10~----------------------------|
Db|-8-----8-----8---8/7-5-----5---5-----5-8-7-----7-----7-10~-7-7-----7-----7-5----------|
Ab|-6-6-6-6-6-6-6-6-6/5-3-3-3-3-3-3-3-3-3/6-5-5-5-5-5-5-5-8~--5-5-5-5-5-5-5-5-3-8-7/-----|
Eb|-----------------------------------------------------------------------------6-5/-----|
    PM-----------|       PM----------|       PM--------|      PM---------|

Refrão:
Eb|---------------------------------------------|
Bb|---------------------------------------------|
Gb|-10b10.5-0-12-0-12-0-12-0-12-0-12-0-12-10-0--|
Db|---------------------------------------------|
Ab|---------------------------------------------| x3
Eb|---------------------------------------------|

Eb|---------------------------------------------|
Bb|---------------------------------------------|
Gb|-15-0-14-0-12-0-10-0-12-0-10-0-12-10-0-------|
Db|---------------------------------------------|
Ab|---------------------------------------------|
Eb|---------------------------------------------|

Eb|---------------------------------------------|
Bb|---------------------------------------------|
Gb|-15-0-14-0-12-0-10-0-7-0-5-0-3p2-0-12/0------|
Db|---------------------------------------------|
Ab|---------------------------------------------|
Eb|---------------------------------------------|

Eb|---------------------------------------------|
Bb|---------------------------------------------|
Gb|---------------------------------------------|
Db|-------------------2-3-4-5-5-----------------|
Ab|---------2-3-4-5-6---------------------------|
Eb|-3-4-5-6-------------------------------------|

Pre-Refrão:
Eb|------------------------------------------------------------------------------------|
Bb|------------------------------------------------------------------------------------|
Gb|-7~-14-14-10~----------12-12-7~-12-12-7~-14-14-10~-----------12-12-7------------2~--|
Db|-7~-14-14-10~-10---10~-12-12-7~-12-12-7~-14-14-10~-10---10~-12-12-7/2-----------2~--|
Ab|-5~-12-12-8~--8s7--10~-10-10-5~-10-10-5~-12-12-8~--8s7--10~-10-10-5/0-0-0-0-0-0-0~--|
Eb|-------------------8~---------------------------------------------------------------|
                                                                         PM------|
( b>E5  G5  D5  E5 ) 2x

Post-Solo:
Eb|-----------------------------------------------------------------------------|
Bb|-2\-/10\-/5-5\-/12\-/7\-2~-------------2\-/10\-/5-5\-/12\-/7/14\0------------|
Gb|-2\-/10\-/5-5\-/12\-/7\-2~-7-x-7-x-7~--2\-/10\-/5-5\-/12\-/7/14\0------------|
Db|-2\-/10\-/5-5\-/12\-/7\-2~-7-x-7-x-7~--2\-/10\-/5-5\-/12\-/7/14\0------------|
Ab|-----------------------------------------------------------------------------|
Eb|-----------------------------------------------------------------------------|

Ponte:
Eb|-----------------------------------------------------------------------------------------------|
Bb|-----------------------------------------------------------------------------------------------|
Gb|-----------------------------------------------------------------------------------------------|
Db|-----------------------------------------------------------------------------------------------|
Ab|-3-3-3-3-3-3-3-3-3-3--7---7-----7---7-7---7-3-3-3-3-3-3-3-3-3-3----------3-------5-3-2-0-3-2-0-|
Eb|-1-1-1-1-1-1-1-1-1-1--5-5-5-5-5-5-5-5-5-5-5-1-1-1-1-1-1-1-1-1-1--5-5-3-5---5-3-5---------------|
      PM---------|         PM------------|       PM-------------|

Eb|--------------------------------------------------------------------------------------------|
Bb|--------------------------------------------------------------------------------------------|
Gb|--------------------------------------------------------10~------------------------------10-|
Db|-----------------10/9-5-----5---5-----5-8-7-----7-----7-10~-7-7-----7-----7-5------10-12----|
Ab|-3-3-3-3-3-3-3-3--8/7-3-3-3-3-3-3-3-3-3/6-5-5-5-5-5-5-5-8~--5-5-5-5-5-5-5-5-3-8-7/----------|
Eb|-1-1-1-1-1-1-1-1--------------------------------------------------------------6-5/----------|
     PM-----------|       PM----------|       PM--------|      PM---------|

Composição de M. Kennedy / S. Hudson
Colaboração e revisão:
  • Ricardo Vilela
3.283 exibições
    • ½ Tom
    • A
    • Bb
    • B
    • C
    • Db
    • D
    • Eb
    • E
    • F
    • F#
    • G
    • Ab
  • Adicionar à lista

    0 comentários

    Ver todos os comentários
    00:00 / 00:00
    outros vídeos desta música
    repetir qualidade Automático
    Outros vídeos desta música
    00:00 / 00:00
    Automático

    Cifra Club Pro

    Aproveite o Cifra Club com benefícios exclusivos e sem anúncios
    Cifra Club Pro
    Aproveite o Cifra Club com benefícios exclusivos e sem anúncios
    OK