Cifra Club

Aprenda

Baby Can't Drive

Slash

Cifra: Principal (violão e guitarra)
tom: D
(intro)

(parte 1 - 8x)
E|--------------------------------|
B|-----------------0-2------------|
G|-----------------0-2------------| 
D|-----------0h2----------0-2---2-|
A|-----------0h2-------0~-----2---|
E|-0-3b3.5p0-----0----------------|

(parte 2 - 4x)
E|-----------------------------|
B|-----------------------------|
G|-------------0h1-------------| 
D|-----------------2---0-------|
A|-------2-4---------2---2-----|
E|-0-3-4-----0-------------3-4-|

(palm-mute todas as notas, exceto o 0h1 hammer-on sobre o G, mas não muito forte)

(parte 3)
E|-----------------------------------------------|
B|-----------------------------------------------|
G|-----------------------------------------------|
D|-4~-3~-7~~-4~-3~-2-2-2-2-2-2-2-2-2-2-2-2-2-2-2-|
A|-4~-3~-7~~-4~-3~-2-2-2-2-2-2-2-2-2-2-2-2-2-2-2-|
E|-2~-1~-5~~-2~-1~-0-0-0-0-0-0-0-0-0-0-0-0-0-0-0-|

(parte 4 - 4x)
E|------------------------------|
B|---------------0h2------------|
G|---------------0h2---5s7-7~---|
D|-------2-------------5s7-7~---|
A|-3b3.5-0-3b3.5-----0-3s5-5~---|
E|------------------------------|

(parte 5)
E|---------------------------------------------------------------------------|
B|-7-x-7-x-7-5---6~-----8-6h8---7-x-7-x-7-----10~-12~-10/--------------------|
G|-7-x-7-x-7-5------7-5-------7-----------7-5-10~-12~-11/--------------------|
D|-------------7-------------------------------------------------------------|
A|---------------------------------------------------------------------------|
E|---------------------------------------------------------------------------|

(parte 6)
E|---------------------------------------------------------------------------|
B|---------------------------------------------------------------------------|
G|---------------------------------------------------------------------------|
D|-5-x-5-x-5-x-5-x-4-x-4-x-4-x-4-x-2-x-2-x-2-x-2-x---------------------------|
A|-3-x-3-x-3-x-3-x-2-x-2-x-2-x-2-x-0-x-0-x-0-x-0-x---------------------------|
E|---------------------------------------------------------------------------|

E|---------------------------------------------------------------------------|
B|---------------------------------------------------------------------------|
G|---------------------------------------------------------------------------|
D|-5-x-5-x-5-x-5-x-4-x-4-x-4-x-4-x-2-2-2-2-2-2-2-2-2-2-2-2-2-----------------|
A|-3-x-3-x-3-x-3-x-2-x-2-x-2-x-2-x-2-2-2-2-2-2-2-2-2-2-2-2-2-----------------|
E|---------------------------------0-0-0-0-0-0-0-0-0-0-0-0-0-----------------|



Composição de Alice Cooper / Nicole Schetzinger / S. Hudson
Colaboração e revisão:
  • Paulo Ricardo
6.455 exibições
    • ½ Tom
    • A
    • Bb
    • B
    • C
    • Db
    • D
    • Eb
    • E
    • F
    • F#
    • G
    • Ab
  • Adicionar à lista

    0 comentários

    Ver todos os comentários
    00:00 / 00:00
    outros vídeos desta música
    repetir qualidade Automático
    Outros vídeos desta música
    00:00 / 00:00
    Automático

    Cifra Club Pro

    Aproveite o Cifra Club com benefícios exclusivos e sem anúncios
    Cifra Club Pro
    Aproveite o Cifra Club com benefícios exclusivos e sem anúncios
    OK