Cifra Club

Aprenda

Sweet Child O' Mine ( Feat Fergie )

Slash

Cifra: Principal (violão e guitarra)
tom: F# (forma dos acordes no tom de G) Afinação: Eb Ab Db Gb Bb Eb
Intro: D C G D

E|-------------15----14------|
B|----15---------------------|
G|-------14-12----14----14---|
D|-12------------------------|
A|---------------------------|
E|---------------------------|

E|-------------15----14------|
B|----15---------------------|
G|-------14-12----14----14---|
D|-14------------------------|
A|---------------------------|
E|---------------------------|

E|-------------15----14------|
B|----15---------------------|
G|-12----14-12----14----14---|
D|---------------------------|
A|---------------------------|
E|---------------------------|

E|-12----------12----14------|
B|-------15------------------|
G|----14----14----14----14---|
D|---------------------------|
A|---------------------------|
E|---------------------------|

E|-15---14----12-------------|
B|------------------15~------|
G|---14---14----14--14~------|
D|---------------------------|
A|---------------------------|
E|---------------------------|

     D         C              G
E|-2--3p2----0---0----------3---3----------|
B|-3------3--1---1-3p1---1--3---3----------|
G|-2------2--0-0-0-----0----0-0-0----------|
D|-0---------2-2-2----------0-0-0----------|
A|-----------3-3------------2-2-2----------|
E|--------------------------3-3-3----------|

E|-2-2-2-2-2-2-2-2-3p2---2-----------------|
B|-3-3-3-3-3-3-3-3-----3-3-----------------|
G|-2-2-2-2-2-2-2-2-----2-2-----------------|
D|-0-0-0-0-0-0-0-0-------0-----------------|
A|-----------------------------------------|
E|-----------------------------------------|

  D
She's got a smile that it seems to me
   C
Reminds me of childhood memories
      G
Where everything was as fresh
                     D
As the bright blue sky

 D
Now and then when I see her face
     C
She takes me away to that special place
           G
And if I stare too long
                              D
I'd probably break down and cry

E|-2-x-2-2--2-2-3p2---2---2----------------|
B|-3-x-3-3--3-3-------3---3----------------|
G|-2-x-2-2--2-2-----2-2-2-2-2--------------|
D|-0-x-0-0--0-0-----0---0---0--------------|
A|-----------------------------------------|
E|-----------------------------------------|

E|-0---0-----------------------------------|
B|-1---1--1-1-3p1---1---1------------------|
G|-0-0-0--0-0-----0-----0------------------|
D|-2-2-2--2-2---------2-2-2----------------|
A|-3-3----------------3---3----------------|
E|-----------------------------------------|

E|-3-x-------------------------------------|
B|-3-x-3-3--3-3--3-3----3------------------|
G|-0-x-0-0--0-0--0-0----0------------------|
D|-0-x-0-0--0-0--0-0--0-0-0----------------|
A|-2-x----------------2---2----------------|
E|-3-x----------------3---3----------------|

      D  C         G       D
E|-10--8--10p8---3-3---3-2-----|
B|-10--8-------8-3---3---3-----|
G|-11--9---------0-------2-----|
D|-12-10---------0-------0-----|
A|---------------2-------------|
E|---------------3-------------|

     D
E|-------0-----2-------3-2-0---|
B|---3-----3-----3---3-------3-|
G|-----2-----2-----2-----------|
D|-0---------------------------|
A|-----------------------------|
E|-----------------------------|

     C9
E|-------------0---------------|
B|-------3-------3-----3-------|
G|---0-----0-------0-----0---0-|
D|-----0-----0-------0-----0---|
A|-3---------------------------|
E|-----------------------------|

     G
E|-----------------0-----------|
B|-----3-----3---------3-------|
G|-------0-----0-----0---------|
D|---------0-----0-------------|
A|-0h2-------------------------|
E|-----------------------------|

     D
E|-------2-3-2-----2-----------|
B|-----3---------3---3---------|
G|---2---------2-------2-------|
D|-0---------------------0-----|
A|-----------------------------|
E|-----------------------------|

A5    B5 C5                A5 D5
Ohh! Oooohh! Sweet child o'  mine
A5    B5 C5                A5 D5
Ohh! Oooohh! Sweet love of'  mine

                        p.m.  p.m.
E|-------------------------------------|
B|-------------------------------------|
G|-2-x-2-x-4-5-x-5-2-7------7-----7----|
D|-2-x-2-x-4-5-x-5-2-7------7-----7----|
A|-0-x-0-x-2-3-x-3-0-5--5-5-5-5-5-5----|
E|-------------------------------------|

E|-------------------------------------|
B|-------------------------------------|
G|-2-x-2--x-4-5-x-5--2-7---------------|
D|-2-x-2--x-4-5-x-5--2-7---------------|
A|-0-x-0--x-2-3-x-3--0-5---------------|
E|-------------------------------------|

E|-----------------------------------------------|
B|-----------------------9r7---------------------|
G|-2-x-2--x-4-5-x-5--2-7-----7-------------------|
D|-2-x-2--x-4-5-x-5--2-7-------7\5\4-------------|
A|-0-x-0--x-2-3-x-3--0-5-------------5\0---------|
E|-----------------------------------------------|

E|-----------------------------------------------|
B|-----------------------------------------------|
G|-2-x-2-x-4-5-x-5--2-7--x-x-7-7-7-7-7-7---------|
D|-2-x-2-x-4-5-x-5--2-7--x-x-7-7-7-7-7-7---------|
A|-0-x-0-x-2-3-x-3--0-5--x-x-5-5-5-5-5-5---------|
E|-----------------------------------------------|

                     |-----------13x----------|
E|-----------------------------------------------|
B|-----------------------------------------------|
G|-2-x-2-x-4-5-x-5-2-7-7-7-7-7-7-7-7-7-7-7-7-7-8-|
D|-2-x-2-x-4-5-x-5-2-7-7-7-7-7-7-7-7-7-7-7-7-7-8-|
A|-0-x-0-x-2-3-x-3-0-5-5-5-5-5-5-5-5-5-5-5-5-5-6-|
E|-----------------------------------------------|

E|----9------10----9-------------13\12----10--------|
B|------10------10---10----13-----------------------|
G|---------9------------------12-------12----12-----|
D|-11-------------------10--------------------------|
A|--------------------------------------------------|
E|--------------------------------------------------|

E|-------------15----14----------------15----14-----|
B|----15----------------------15--------------------|
G|-------14-12----14----14-------14-12----14----14--|
D|-12----------------------12-----------------------|
A|--------------------------------------------------|
E|--------------------------------------------------|

E|----9------10----9-------------13\12----10--------|
B|------10------10---10----13-------------------15~-|
G|---------9------------------12-------12----12-14~-|
D|-11-------------------10--------------------------|
A|--------------------------------------------------|
E|--------------------------------------------------|

( D C9 G D )

Solo 1:

E|--------------------------------------------------|
B|--------------------------------------------------|
G|-14\12-11~-14\12-11~-14\12-----14\12--------------|
D|---------------------------14~-------14~----------|
A|--------------------------------------------------|
E|--------------------------------------------------|

E|--------------------------------------------------|
B|------------------------15-17r15------------------|
G|-14\12~-16r14p12-14b16----------------------------|
D|---------------------------------14b16r14\12~-----|
A|--------------------------------------------------|
E|--------------------------------------------------|

E|---------------------------------------------------|
B|---------------------------------------------------|
G|-14\12-11~-14\12-11~-14\12-----14\12---------------|
D|---------------------------14~-------14~-----------|
A|---------------------------------------------------|
E|---------------------------------------------------|

E|---------------------------------------------------|
B|-------------------------------15------------------|
G|-14\12~-14\12~-12r11----11b12~----12r11~-----------|
D|---------------------12----------------------------|
A|---------------------------------------------------|
E|---------------------------------------------------|

E|---------------------------------------------------|
B|--------------------------15-15/13-13-15/17~-------|
G|-14\12-11~-14\12-11-14/16--------------------------|
D|---------------------------------------------------|
A|---------------------------------------------------|
E|---------------------------------------------------|

E|---------------------------------------------------|
B|-17-17\15-15\13-13r12------------------------------|
G|----------------------12----16r14p12-14b16---------|
D|-------------------------12------------------------|
A|---------------------------------------------------|
E|---------------------------------------------------|

E|-------------------17~-----------------------------|
B|-15-15b17r15-17b19---~-----------------------------|
G|---------------------------------------------------|
D|---------------------------------------------------|
A|---------------------------------------------------|
E|---------------------------------------------------|

  D
She's got eyes of the bluest skies
   C
As if they thought of rain
   G
I hate to look into those eyes
     D
And see an ounce of pain

     D
Her hair reminds me of a warm safe place
      C
Where as a child I'd hide
      G
And pray for the thunder and the rain
     D
To quietly pass me by

A5    B5 C5                A5 D5
Ohh! Oooohh! Sweet child o'  mine
A5    B5 C5                A5 D5
Ohh! Oooohh! Sweet love of'  mine
A5    B5 C5                A5 D5
Ohh! Oooohh! Sweet child o'  mine
A5    B5 C5                A5 D5   D#5
Uhh! Uuuuhh! Sweet love of'  mine

Solo 2: Em C B7 Am

     Em              C
E|-------0----------------3----------|
B|-----0---0------------1---1--------|
G|---0-------0---0----0-------0---0--|
D|-------------2----------------2----|
A|-----------------3-----------------|
E|-0---------------------------------|

     B7              Am
E|-------2---------------0-----------|
B|-----0---0-----------1---1---------|
G|---2-------2---2---2-------2-------|
D|-------------1---------------------|
A|-2---------------0-----------------|
E|-----------------------------3-2---|

E|------------------------------------------|
B|------------------------------------------|
G|---------------------2-x-2--5-5-5-5-7-----|
D|-2-x-2--2-4-5-x-5--2-2-x-2--5-5-5-5-7--5--|
A|-2-x-2--2-4-5-x-5--2-0-x-0--3-3-3-3-5--5--|
E|-0-x-0--0-2-3-x-3--0-------------------3--|

E|-17b19~-15-14-15p14-----15-14-----------------------|
B|--------------------17~-----------------------------|
G|----------------------------------------------------|
D|----------------------------------------------------|
A|----------------------------------------------------|
E|----------------------------------------------------|

E|-15p14----------14----------------------------------|
B|-------17-16-17----17r15-12-------------------------|
G|----------------------------16r14-12-11h12p11-------|
D|----------------------------------------------14~---|
A|----------------------------------------------------|
E|----------------------------------------------------|

E|----------------------------------------------------|
B|----------13-12h13p12-------13b15-15r13-------------|
G|-11-12-14-------------14-14-------------------------|
D|----------------------------------------------------|
A|----------------------------------------------------|
E|----------------------------------------------------|

E|---------------------15b17r15~----------------------|
B|--12-12~-12b13r12-----------------------------------|
G|------------------14--------------------------------|
D|----------------------------------------------------|
A|----------------------------------------------------|
E|----------------------------------------------------|

E|----------------------------------------------------|
B|----------------------------------------------------|
G|-11b12r11~-9-9~-11b12r11-9-9-8b9-8~/11~-------------|
D|----------------------------------------------------|
A|----------------------------------------------------|
E|----------------------------------------------------|

E|----------------------------------------------------|
B|----------------------------------------------------|
G|-11b12r11-9-4b5r4-5-5/9~-11b12r11-9-8b9-8-9b11-9/11-|
D|----------------------------------------------------|
A|----------------------------------------------------|
E|----------------------------------------------------|

E|----------------------------------------------12/14|
B|----------------------------13-12-16-12-13-16------|
G|-------11h12p11----11-14/16------------------------|
D|-13-14----------14---------------------------------|
A|---------------------------------------------------|
E|---------------------------------------------------|

E|-------14h15----14-15-14\12----14----12h14p12------|
B|-16-17-------17-------------15----15----------15---|
G|---------------------------------------------------|
D|---------------------------------------------------|
A|---------------------------------------------------|
E|---------------------------------------------------|

E|-12------------------------------------------------|
B|----15b17r15p12-15b17-15b17~-----------------------|
G|---------------------------------------------------|
D|---------------------------------------------------|
A|---------------------------------------------------|
E|---------------------------------------------------|

E|---------------------------------------------------|
B|-15b17r15p12----15b17-15b17~-15b17r15p12-----------|
G|-------------14--------------------------14--------|
D|---------------------------------------------------|
A|---------------------------------------------------|
E|---------------------------------------------------|

E|--------------17--------17-------------------------|
B|-17b19-17b19~----17b19~----17b19~-17b19r17p15------|
G|---------------------------------------------------|
D|---------------------------------------------------|
A|---------------------------------------------------|
E|---------------------------------------------------|

E|---------------------------------------------------|
B|-15h17~-15b17-17-17r15-12~-------------------------|
G|---------------------------16r14p12-14~p12-14~-----|
D|---------------------------------------------------|
A|---------------------------------------------------|
E|---------------------------------------------------|

E|---------------------------------------------------|
B|---------------------------------------------------|
G|-12-14b15-12-14-12---------------------------------|
D|---------------------------------------------------|
A|---------------------------------------------------|
E|---------------------------------------------------|

E|-------15-------15-------15-------15-------15------|
B|-------15-------15-------15-------15-------15------|
G|-14b16-----b16------b16------b16------b16----------|
D|---------------------------------------------------|
A|---------------------------------------------------|
E|---------------------------------------------------|

E|---------------------------------------------------|
B|---------------------------------------------------|
G|-16r14p12----14p12-x-x-12b13-----------------------|
D|----------14-------x-x-------14p12-12h14~----------|
A|---------------------------------------------------|
E|---------------------------------------------------|

E|---------------------------------------------------|
B|---------------------------------------------------|
G|-x-x-12h14p12----12b13--------------x-x-12h14p12---|
D|-x-x----------14-------14p12-12h14~-x-x----------14|
A|---------------------------------------------------|
E|---------------------------------------------------|

E|---------------------------------------------------|
B|-------------------------12-12-------15-15-12-15---|
G|-12-12-------14-14-12-14-------14-12---------------|
D|-------14-12---------------------------------------|
A|---------------------------------------------------|
E|---------------------------------------------------|

E|-12-12-------15-15-12--15-14-12h15p12--------------|
B|-------15-12--------------------------15-----------|
G|---------------------------------------------------|
D|---------------------------------------------------|
A|---------------------------------------------------|
E|---------------------------------------------------|

E|----------12----------------12---------------------|
B|-15b17-17----15p12-------12----15p12---------------|
G|-------------------14b16---------------------------| (4x)
D|---------------------------------------------------|
A|---------------------------------------------------|
E|---------------------------------------------------|

E|-15b19r15~-12h15p12----12----------12--------------|
B|--------------------15----15b17-17----15p12--------|
G|---------------------------------------------------|
D|---------------------------------------------------|
A|---------------------------------------------------|
E|---------------------------------------------------|

E|---------------------------------------------------|
B|-------------------15------------------------------|
G|-14b16r14p12-14b16----16r14p12----14p12----12~\----|
D|-------------------------------14-------14---------|
A|---------------------------------------------------|
E|---------------------------------------------------|

( E5 F#5 G5 A5 C5 D5 G5 )

E|------------------------------------------|
B|------------------------------------------|
G|---------------------2-x-2--5-5-5-5-7-----|
D|-2-x-2--2-4-5-x-5----2-x-2--5-5-5-5-7--5--|
A|-2-x-2--2-4-5-x-5----0-x-0--3-3-3-3-5--5--|
E|-0-x-0--0-2-3-x-3----------------------3--|

E|----------------------------------|
B|----------------------------------|
G|----------------------------------|
D|----------------------------------|
A|-7-5------------------------------|
E|-----7-6-5---3bp0-----------------|

E|----------------------------------|
B|----------------------------------|
G|---------------------2---5--7-----|
D|-2-x-2--2-4-5-x-5----2---5--7--2--|
A|-2-x-2--2-4-5-x-5----0---3--5--2--|
E|-0-x-0--0-2-3-x-3--------------0--|

E|---------------------------------------------|
B|-x-x-x-x-x--x-x--x-x-------x-7-x-------------|
G|-x-x-x-x-x--x-x--x-x-12\9~-x-7-x-------------|
D|-x-x-x-x-x--x-x--x-x-------x-7-x-------------|
A|---------------------------------------------|
E|---------------------------------------------|

E|---------------------------------------------|
B|---------------------------------------------|
G|-x-x------x-x--------------------------------|
D|-x-x-7p5--x-x-7p5----------------------------|
A|-x-x------x-x-----7p5------------------------|
E|----------------------7p5\3------------------|

E|----|------------|---------------------------|
B|----|------------|-------15-b17r15-12--------|
G|----|------------|--12~--------------14-12---|
D|-12-|--(h14p12)--|---------------------------|
A|----|------------|---------------------------|
E|----|------------|---------------------------|

E|---------------------------------------------|
B|-17-17-17-17-17-17-------17-17-17-17-17-17---|
G|---------------------------------------------|
D|---------------------------------------------|
A|---------------------------------------------|
E|---------------------------------------------|

E|-22b24-24-24-24-24-24r22--------------------|
B|--------------------------------------------|
G|--------------------------------------------|
D|--------------------------------------------|
A|--------------------------------------------|
E|--------------------------------------------|

E|--------------------------------------------|
B|-b24-24r22-24r22-24r22-24r22b24r22p20-------|
G|--------------------------------------21~---|
D|--------------------------------------------|
A|--------------------------------------------|
E|--------------------------------------------|

E|-------12-----------------------------------------|
B|-15b17----15p12---15p12h14p12---------------------|
G|--------------------------------------------------|
D|--------------------------------------------------|
A|--------------------------------------------------|
E|--------------------------------------------------|

E|--12----------12----------12----------12----------|
B|-----15p12-------15p12-------15p12-------15p12----|
G|-----------14----------14----------14----------14-| (4x)
D|--------------------------------------------------|
A|--------------------------------------------------|
E|--------------------------------------------------|

E|-12--------------------------------------------------|
B|-----15p12-------------15p17r15b17r15b17-15p12-------|
G|-----------14b16r14p12-------------------------14b16-|
D|-----------------------------------------------------|
A|-----------------------------------------------------|
E|-----------------------------------------------------|

E|-------------------------------------------------|
B|------15-----------------------------------------|
G|-14b16--16r14p12-14-14b16r14p12-14-14p12---------|
D|----------------------------------------14p12----|
A|-------------------------------------------------|
E|-------------------------------------------------|

E|-------12-------12-------------------------------|
B|-15b17----15b17----15-12-15b17-15-12-------------|
G|-------------------------------------14b15-14-12-|
D|-------------------------------------------------|
A|-------------------------------------------------|
E|-------------------------------------------------|

E|-------------------------------------------------|
B|-------------------------------------------------|
G|-14~~-14\---x------------------------------------|
D|------------x--/14-14\9-9\5----------------------|
A|------------x---------------10\7\2---------------|
E|-----------------------------------3/5\3p0-------|
Composição de Guns n' Roses
Colaboração e revisão:
  • João Davanço
  • Erick
34.550 exibições
    • ½ Tom
    • A
    • Bb
    • B
    • C
    • Db
    • D
    • Eb
    • E
    • F
    • F#
    • G
    • Ab
  • Adicionar à lista

    0 comentários

    Ver todos os comentários

    Conseguiu tocar?

    7 Tocaram 1 Ainda não

    Grave um vídeo tocando Sweet Child O' Mine ( Feat Fergie ) e nos envie!

    00:00 / 00:00
    outros vídeos desta música
    repetir qualidade Automático
    Outros vídeos desta música
    00:00 / 00:00
    Automático

    Cifra Club Pro

    Aproveite o Cifra Club com benefícios exclusivos e sem anúncios
    Cifra Club Pro
    Aproveite o Cifra Club com benefícios exclusivos e sem anúncios
    OK