The Godfather Theme

Slash

Composição: Slash
Tom: B Afinação: Eb Ab Db Gb Bb Eb

|----------------------------|
|----------------------------|
|----------------------------|
|----------------------------|
|----------7b8r7-------------|
|-----7--9--------9p7h9~~~---|


|-----------------------9-----12--11---9h11p9----------------------------|
|---------------------9-----------------------12b14r12---9---------------|
|-------------------9----------------------------------------------------|
|--------------9h11------------------------------------------------------|
|-------7-9/11-----------------------------------------------------------|
|---7h9------------------------------------------------------------------|


|---9------------------------9--------------------------------------|
|-----12p9--12b14r12p9---------12p9--12b14r12p9---------------------|
|----------------------11b13----------------------------------------|[x10]
|-------------------------------------------------------------------|
|-------------------------------------------------------------------|
|-------------------------------------------------------------------|


|------12----11h12p11-9h11p9----9-------------------------------------------------|
|---12----12-----------------12---12-10h12p10--9h10p10----------------------------|
|------------------------------------------------------12-11h12p11--9-11-9---9----|
|--------------------------------------------------------------------------12--11-|
|---------------------------------------------------------------------------------|
|---------------------------------------------------------------------------------|


|------------------------------------------------------------------------|
|-15---14-15-16--15-15---------15---14-15-16--15-15----------------------|
|----------------------15---------------------------14-------------------|
|------------------------------------------------------------------------|
|------------------------------------------------------------------------|
|------------------------------------------------------------------------|


|------------------------------------------------------------------------|
|-15---14-15-18--15-14-15b17r15---14b16r14----------14b16r14-------------|
|------------------------------------------14b16r14----------14----------|
|------------------------------------------------------------------------|
|------------------------------------------------------------------------|
|------------------------------------------------------------------------|


|----10-13-12-10-13-10-12-10----------------------------------------------|
|-10-------------------------11~-13-10------------------------------------|
|-------------------------------------------------------------------------|
|-------------------------------------------------------------------------|
|-------------------------------------------------------------------------|
|-------------------------------------------------------------------------|


|----12-10-13-10-12-10---------------------------------------------------|
|-10---------------------/10-9-8-----------------------------------------|
|------------------------------------------------------------------------|
|------------------------------------------------------------------------|
|------------------------------------------------------------------------|
|------------------------------------------------------------------------|


|-------10-10b12---------9-9b11----------------------------------------------------|
|----6-----------------6--------------10-10-10b12-10-11b13-10-10b12-10-------------|
|-/8----------------/8--------------------------------------------------10---------|
|--------------------------------------------------------------------------11-12---|
|----------------------------------------------------------------------------------|
|----------------------------------------------------------------------------------|


|-10-10-9-8---10/12-10---------------------------------------------------|
|----------------------11-10~----/10-10-9-8----10b12--10p8-10------------|
|------------------------------------------------------------------------|
|------------------------------------------------------------------------|
|------------------------------------------------------------------------|
|------------------------------------------------------------------------|


Final solo:


|----10---13-12-10-13-12-13-15-13-15p13-12-13-12-13p12-10-12----|
|-10------------------------------------------------------------|
|---------------------------------------------------------------|
|---------------------------------------------------------------|
|---------------------------------------------------------------|
|---------------------------------------------------------------|


|--9-10-6~--9p6-----------------------------------------10-13-12h13p12p10-|
|----------------8-10-10h11p10p8-10h11p8-10h11p8h10-10--------------------|
|-------------------------------------------------------------------------|
|-------------------------------------------------------------------------|
|-------------------------------------------------------------------------|
|-------------------------------------------------------------------------|


|---12h13p12p10-12-13h15-12h13p12-13-15b19-15b19-15b19r15-13-10-----------|
|-------------------------------------------------------------------------|
|-------------------------------------------------------------------------|
|-------------------------------------------------------------------------|
|-------------------------------------------------------------------------|
|-------------------------------------------------------------------------|


|---13h15-15-15~--13h15-12--13-12-10b14-10b14---|
|-----------------------------------------------|
|-----------------------------------------------|
|-----------------------------------------------|
|-----------------------------------------------|
|-----------------------------------------------|


|--10b13r10p8-10~-8b11-6-5-8p5-6-8p5-6-6p5--------------------------------|
|-------------------------------------------8-6-8p5-6-5h6-----------------|
|---------------------------------------------------------7-6p7-----------|
|-------------------------------------------------------------------------|
|-------------------------------------------------------------------------|
|-------------------------------------------------------------------------|


|------------------------------------------10-13-13b17---------15b19------|
|----------------------8-10h11-10p8-10-10---------------------------------|
|--9h10-7h9-10-7h9-10-----------------------------------------------------|
|-------------------------------------------------------------------------|
|-------------------------------------------------------------------------|
|-------------------------------------------------------------------------|


|--15b18r15p13-15-15b18r15p13-15-13-15p12---------------------------------|
|-----------------------------------------14--15~~--15b18--13b17----------|
|-------------------------------------------------------------------------|
|-------------------------------------------------------------------------|
|-------------------------------------------------------------------------|
|-------------------------------------------------------------------------|


|------------------------------------13-------12-10~-10----------------------------------8-------------|
|--13---15b19r15p11--15p11-10--10-11----10-11-----------9------10-8-10-8----8-8--6--8b12---8b12r8-6----|
|---------------------------------------------------------11-------------10-------------------------7--|
|------------------------------------------------------------------------------------------------------|
|------------------------------------------------------------------------------------------------------|
|------------------------------------------------------------------------------------------------------|


|-------9-------9----------------------13-13-----|
|-10h11---10h11---10h11-11h13-15-13-15-------15--|
|------------------------------------------------|
|------------------------------------------------|
|------------------------------------------------|
|------------------------------------------------|


|--17-15h17p15p13----17-15h17p15p13----17-15h17p15p13----17-15h17p15p13----17-15h17p15p13-----18b22--|
|-----------------15----------------15----------------15----------------15-----------------18--------|
|----------------------------------------------------------------------------------------------------|
|----------------------------------------------------------------------------------------------------|
|----------------------------------------------------------------------------------------------------|
|----------------------------------------------------------------------------------------------------|


|--18-17-18--17h18p17p15~-17-15-13-12-15-13-12-15-13-12-15-13-12-10-13-12h13-12p10-12-10p9-10-10p9-10-|          |-----------------------------------------------------------------------------------------------------|
|-----------------------------------------------------------------------------------------------------|
|-----------------------------------------------------------------------------------------------------|
|-----------------------------------------------------------------------------------------------------|
|-----------------------------------------------------------------------------------------------------|


|--9------------------------------------------------20-------------------------------20----------------------|
|----11h14-11\10----11-----------------------20b24------20b24r20p18-15-20---18-20b24----20b24r20p18-20-17-20-|
|----------------12----12--12b16--12--(12)\------------------------------------------------------------------|
|------------------------------------------------------------------------------------------------------------|
|------------------------------------------------------------------------------------------------------------|
|------------------------------------------------------------------------------------------------------------|


|--------------------------------------------------------------------|
|---18-20-17-18-15-17-13-15-13-15p13-11~--13-11-13p11-10~-8-10~~~~~--|
|--------------------------------------------------------------------|
|--------------------------------------------------------------------|
|--------------------------------------------------------------------|
|--------------------------------------------------------------------|


|------------------------------------------|
|--8-10p8\6--8------------11~--11p10\8-10--|
|--------------10-9-10-9-------------------|
|------------------------------------------|
|------------------------------------------|
|------------------------------------------|


|--------------------------------------------------------------------|
|--------------------------------------------------------------------|
|--12-10-9-12-10-9--10p9p7------9p7p6-----7p6-------6----------------|
|---------------------------11---------8-------8p7-----8p7p5---------|
|--------------------------------------------------------------------|
|--------------------------------------------------------------------|


|--------------------------------------------------|
|--------------------------------------------------|
|---------6-6---7-6------------6-------------------|
|---8-7-8-----8-----8-7-7b8-7--------------------7-|
|--------------------------------------------------|
|--------------------------------------------------|


|--------------------------------------------------------------------|
|--------------------------------------------------------------------|
|--7~~~~~~~~--10--9--7--10--7--9--7----------------------------------|
|------------------------------------8~~~---8h10~~~~-----------------|
|--------------------------------------------------------------------|
|--------------------------------------------------------------------|


|-----------------------------------------------------------------------------|
|-----------------------------------------------------------10-10-10-10-10-10-|
|-----------9-9-9-9-9-9/10-10-10 10 10 10/12-12-12-12-12-12-------------------|
|--10h12----------------------------------------------------------------------|
|-----------------------------------------------------------------------------|
|-----------------------------------------------------------------------------|


|---------------------------------------------------------------------------------------------------------|
|-/11-11-11-11-11-11\10-10-10-10-10-10/13-13-13-13-13-13\11-11-11-11-11-11\10-10-10-10-10-10/11-11-11-11--|
|---------------------------------------------------------------------------------------------------------|
|---------------------------------------------------------------------------------------------------------|
|---------------------------------------------------------------------------------------------------------|
|---------------------------------------------------------------------------------------------------------|


|--------------------------------------------------------------------------------------------------|
|-11-11--14-14-14-14-14-14/15-15-15-15-15-15/17-17-17-17-17-17/18-18-18-18-18-18\17-17-17-17-17-17-|
|--------------------------------------------------------------------------------------------------|
|--------------------------------------------------------------------------------------------------|
|--------------------------------------------------------------------------------------------------|
|--------------------------------------------------------------------------------------------------|


|-------------------------------------------|
|-\14-14-14-14-14-14/15~~~~~~~~~~-----15\---|
|-------------------------------------------|
|-------------------------------------------|
|-------------------------------------------|
|-------------------------------------------|
Página 1 / 1

Letras e título
Acordes e artista

resetar configurações
variar acorde