Jumpers

Sleater-Kinney

Composição de: Sleater-Kinney
tom: G
Album : The Woods


Standard Tuning EADGBe

MAIN RIFF:
e------------------------|
B-7-7-7-7-7-7-7-7-5-8-7--|
G------------------------|
D------------------------|
A------------------------|
E------------------------|

CHORUS:
e-------------------------------|
B-------------------------------|
G-------------------------------|
D-5-5---5-5---5-5-----5-5-------|
A------7-----7-----7-7-----7-7--|
E-------------------------------|

e-------------------------------|
B-------------------------------|
G-------------------------------|
D-5-5---5-5---5-5-----5-5-------|
A------7-----7-----7-7-----7-7--|
E-------------------------------|

SOLO:
e---------------------------------------|
B---------------------------------------|
G---------------------------------------|
D-5-5--5-5---5-5-----5-5-7-7-9-9-14-14--|
A-----7-----7-----7-7-------------------|
E---------------------------------------|

e-----------------------------------------------------------------|
B-----10-------------10-------------10---------8-8-8~--10-10-10~--|
G-9-7----9-7-9-7-9-7----9-7-9-7-9-7----9-7-9-7--------------------|
D-----------------------------------------------------------------|
A-----------------------------------------------------------------|
E-----------------------------------------------------------------|

e-----------------------------------------------------------|
B-----10-------------10-------------10---------8-10-12-15---|
G-9-7----9-7-9-7-9-7----9-7-9-7-9-7----9-7-9-7--------------|
D-----------------------------------------------------------|
A-----------------------------------------------------------|
E-----------------------------------------------------------|

e------------------------------------------------------------------|
B-7~~~---5~--3~--0~-----------7/8\7--7~~~~---5~--3~--0~------------|
G--------------------2~----------------------------------2~--4~~~--|
D------------------------4--2--------------------------------------|
A------------------------------------------------------------------|
E------------------------------------------------------------------|


End with an E (x799xx)
Página 1 / 1

Letras e título
Acordes e artista

resetar configurações
OK