Enviar cifraEntrar

All Hope Is Gone

Slipknot

Tab de baixo: Principal
exibições 1.339
D|---------------------------------------------------------------------------|
A|---------------------------------------------------------------------------|
E|---------------------------------------------------------------------------|
B|-6p3h6p3--7p4h7p4-0--6p3h6p3--7p4h7p4-0------------------------------------|

D|---------------------------------------------------------------------------|
A|---------------------------------------------------------------------------|
E|--------------------8p5h8p5---------9p6h9p6-10p7h10p7----------------------|
B|-6p3h6p3--7p4h7p4-0---------8p5h8p5----------------------------------------|

(intro)

(parte 2) 00:10 - 00:30
D|------------------------------------|
A|------------------------------------|
E|------------------------------------|
B|-0-0-6-0-0-5-0-0-6-0-0-5-0-3-0-0----|

(pré-verso) 00:30 - 00:34
D|-------------------------|
A|-3~~~~~~~~~~~~~~~--------|
E|-------------------------|
B|-------------------------|

(verso) (parte 1) 00:34 - 00:58
D|----------------------------------------------|
A|----------------------------------------------| (8x)
E|----------999999999888888888------------------|
B|-666666666------------------999999999---------|

D|----------------|
A|----------------|
E|----------------|
B|-12\\6----------|

D|-----------------|
A|-----------------|
E|-----------------|
B|-0~~~~~~~~~~-----|

(verso) (parte 2) 00:58 - 1:17
D|---------------------------------------------------------------------------|
A|---------------------------------------------------------------------------|
E|----------7777777788888888----------------555555557777777788888888---------|
B|-77777777------------------10101010101010--------------------------66666666|

(refrão) 1:17 - 1:42
D|---------------------------------------------------------------------------|
A|---------------------------------------------------------------------------|
E|---------------------------------------------13131313-12121212-------------|
B|-00000000-55555555-77-88-1313131313131313-13-------------------------------|

D|---------------------------------------------------------------------------|
A|---------------------------------------------------------------------------|
E|---------------------------------------------------------------------------|
B|-00000000-55555555-77-88-3--3-3-3-3-3-3/6-1--1-1-1-1-1-1-------------------|

D|-----------------------|
A|-----------------------|
E|-----------------------|
B|-0~~~~~~~~~~~----------|

(solo) 1:42 - 2:05
D|-----------------------------------|
A|-----------------------------------| (10x)
E|-----------------------------------|
B|-0-3-6-0-3-5-0-3-6-0-0-5-0-3-0-0---|

(refrão) 2:05 - 2:24 
D|---------------------------------------------------------------------------|
A|---------------------------------------------------------------------------|
E|---------------------------------------------13131313-12121212-------------|
B|-00000000-55555555-77-88-1313131313131313-13-------------------------------|

D|---------------------------------------------------------------------------|
A|---------------------------------------------------------------------------|
E|---------------------------------------------------------------------------|
B|-00000000-55555555-77-88-3--3-3-3-3-3-3/6-1--1-1-1-1-1-1-------------------|

(let the guitars to the slides): 2:24 - 3:04
D|---------------------------------------------------------------------------|
A|-----------------------------------------(slides)--------------------------| (3x)
E|---------------------------------------------------------------------------|
B|-8--7--5-7-3-2~-1-1-1-1---8-7-5-3-2~-1-------------------------------------|

D|---------------------------------------------------------------------------|
A|---------------------------------------------------------------------------|
E|---------------------------------------------------------------------------|
B|-8-7-5-7-3-2~-1--8-7-5-7-3-2~-1--1--1--------------------------------------|

D|---------------------------------------------------------------------------|
A|-----------------------------------------(slides)--------------------------| (3x)
E|---------------------------------------------------------------------------|
B|-8--7--5-7-3-2~-1-1-1-1---8-7-5-3-2~-1-------------------------------------|

D|---------------------------------------------------------------------------|
A|---------------------------------------------------------------------------|
E|---------------------------------------------------------------------------|
B|-8-7-5-7-3-2~-1--8-7-5-7-3-2~-1--1--1--------------------------------------|

(final) 3:04 - 3:22
D|---------------------------------------------------------------------------|
A|---------------------------------------------------------------------------| (2x)
E|----------7777777788888888----------------555555557777777788888888---------|
B|-77777777------------------10101010101010--------------------------66666666|

D|---------------------------------------------------------------------------|
A|----------7777777788888888---------555555557777777788888888----------------| (2x)
E|-55555555-----------------88888888-------------------------44444444--------|
B|---------------------------------------------------------------------------|

(refrão) 3:22 - 4:00
D|---------------------------------------------------------------------------|
A|---------------------------------------------------------------------------|
E|---------------------------------------------13131313-12121212-------------|
B|-00000000-55555555-77-88-1313131313131313-13-------------------------------|

D|---------------------------------------------------------------------------|
A|---------------------------------------------------------------------------|
E|---------------------------------------------------------------------------|
B|-00000000-55555555-77-88-3--3-3-3-3-3-3/6-1--1-1-1-1-1-1-------------------|

(outro) 4:00 - 4:41
D|---------------------------------------------------------------------------|
A|-----------------------------------------(slides)--------------------------|
E|---------------------------------------------------------------------------|
B|-8--7--5-7-3-2~-1-1-1-1---8-7-5-3-2~-1-------------------------------------|

D|---------------------------------------------------------------------------|
A|---------------------------------------------------------------------------|
E|---------------------------------------------------------------------------|
B|-8-7-5-7-3-2~-1--8-7-5-7-3-2~-1--1--1--------------------------------------|

D|---------------------------------------------------------------------------|
A|-----------------------------------------(slides)--------------------------|
E|---------------------------------------------------------------------------|
B|-8--7--5-7-3-2~-1-1-1-1---8-7-5-3-2~-1-------------------------------------|

D|---------------------------------------------------------------------------|
A|---------------------------------------------------------------------------|
E|---------------------------------------------------------------------------|
B|-8-7-5-7-3-2~-1--8-7-5-7-3-2~-1--1--1--------------------------------------|
  • 1
  • 2
  • 3
  • 4
  • 5
  • 6
  • 7
  • 8
  • 9
  • 10
  • 11
  • 12
    Composição: SlipknotColaboração e revisão:
    • Lucas Lago

    0 comentários

      mostrar mais comentários

      Conseguiu tocar?

      1tocaram0ainda não

      Grave um vídeo tocando All Hope Is Gone e mande pra gente!

      00:00 / 00:00
      outros vídeos desta música
      repetirqualidadeautomática
      • automática
      Outro vídeos desta música
        00:00 / 00:00
        automática
        • automática
        Acordes para:violão e guitarra
        dificuldadeexibiçõescontribuições
        1 versão de Tab de baixoexibiçõescontribuições
        1 versão de Guitar Proformatodownloadscontribuição
        fecharplay/pause subir/descer velocidade
        fechar
        OK