Cifra Club

Butcher's Hook

Slipknot

Tab de baixo: Principal
exibições 258
(intro 6x)
D|------------------------|----------------------------|
A|------------------------|----------------------------|
E|-4---4---4---4--4-------|-4---4---4------------------|
B|---1---1---1--1--1------|---1---1---1-1-3-4----------|

(verso)
D|------------------------|----------------------------|
A|---------2----------2---|-----2----------------------|
E|-2--0--2----2-0-2-0-----|-2-0----2-0-2-0-------------|
B|------------------------|----------------1-1--3-5----|

(refrão)
D|---------------|-------------------|
A|---------------|-------------------|
E|----8----------|----3------3-------|
B|-8----8--7--8--|--3---3-3----3-----|

D|---------------|-------------------|
A|---------------|-------------------|
E|---8-----------|------6-6-6--------|
B|-8----8--7--8--|-5--3--------------|

D|---------------|-------------------|-------------|
A|---------------|-------------------|-------------|
E|---8-----------|-3-----4-----5-----|-------------|
B|-8----8--7--8--|---3-2---3-2---3-2-|-1-1-1--3-4--|

(ponte / solo)
D|------------------------------------|
A|------------------------------------|
E|---3-----------------3--------------|
B|-0----3-2-3-2-3-2-3----0--6-6-5-----|

(outro)
D|------------------|
A|------------------|
E|------------------|
B|-1-1-1-2-3--------|
Composição: SlipknotColaboração e revisão:
  • Lucas Lago

0 comentários

    mostrar mais comentários

    Conseguiu tocar?

    0tocaram0ainda não

    Grave um vídeo tocando Butcher's Hook e mande pra gente!

    00:00 / 00:00
    outros vídeos desta música
    repetirqualidadeautomática
    Outro vídeos desta música
      00:00 / 00:00
      automática
      OK