Notificações Amigos pendentes

      Slipknot

      Slipknot

      29.061 exibições
      Tom: E
      Afinção(C,G,C,F,A,D) Afinção que nem a do Soad, eu acho essa afinação muito louca!!!!!!!!!!
      
      
      D|--------------------------------|
      A|--------------------------------|
      F|--------------------------------|
      C|--------------------------------| 4x 
      G|0-0---0-0-0---0-0-0---0-0-0-1---|
      C|0-0---0-0-0---0-0-0---0-0-0-1---|
      
       
       
      
      D|--------------------------------|
      A|--------------------------------|
      F|--------------------------------|
      C|--------------------------------| 4x 
      G|0-0-----0-0-----0-0-----0-0-1---|
      C|0-0---010-0---010-0---010-0-1---|
      
      
      D|--------------------------------|
      A|--------------------------------|
      F|--------------------------------|
      C|--------------------------------| 4x 
      G|5-5-----3-3-----0-0---0-0-0-1---|
      C|5-5-22223-3-11110-0---0-0-0-1---|
      
      
      D|----|
      A|----|
      F|----|
      C|----| 
      G|3\2-|
      C|3\2-|
      
      
      
      D|----------------|
      A|----------------|
      F|----------------|
      C|----------------| 8x 
      G|0-0-----0-0-3\2-|
      C|0-0-01000-0-3\2-|
      
      
      D|----------------|
      A|----------------|
      F|----------------|
      C|----------------| 2x 
      G|------------1---|
      C|000-000-000-1---|
      
      
      D|----------------|
      A|----------------|
      F|----------------|
      C|----------------| 2x 
      G|----------------|
      C|5-5-22223-3-1111|
      
      
      D|----------------|
      A|----------------|
      F|----------------|
      C|----------------| 2x 
      G|----------------|
      C|5555222233331111|
      
      
      D|----|
      A|----|
      F|----|
      C|----| 
      G|--1-|
      C|--1-|
      
      
      
      D|--------------------------------|
      A|--------------------------------|
      F|--------------------------------|
      C|--------------------------------| 4x 
      G|0-0-----0-0-----0-0-----0-0---1-|
      C|0-0---010-0---010-0---010-0---1-|
      
       
      
      
      
      D|--------------------------------|
      A|--------------------------------|
      F|--------------------------------|
      C|--------------------------------| 2x 
      G|0-----------------------------1-|
      C|0-----------------------------1-| 
      
      
      D|----------------------------------------------------------------|
      A|----------------------------------------------------------------|
      F|----------------------------------------------------------------|
      C|----------------------------------------------------------------| 4x 
      G|----------------------------------------------------------------|
      C|0-----7~~---------------7---5---8~~---7~~---5~~-----------------|
      
      
      D|----------------------------------------------------------------| |
      A|------7-----------------8---7-8-10----9-------------------------| |
      F|7-------------------------------------------7---------------5---| |
      C|----------------------------------------------------------------| | 
      G|----------------------------------------------------------------| |
      C|----------------------------------------------------------------| | 
      
      
      D|----------------------------------------------------------------| |
      A|------7-----------------8---7-----------------------------------| |
      F|7-------------------------------7-----5-------------------------| |
      C|----------------------------------------------------------------| | 
      G|----------------------------------------------------------------| |
      C|----------------------------------------------------------------| |
      
      
      D|--------------------------------|
      A|--------------------------------|
      F|----7-----5-----3-------3-----3-|
      C|--7-----5-----3-----3-------3---| 2x 
      G|5-----3-----1-----1---1---1-----|
      C|--------------------------------|
      
      
      D|--------------------------------|
      A|----10----8-----6-------6-----6-|
      F|--7-----5-----3-----3-------3---|
      C|7-----5-----3-----3---3---3-----| 2x 
      G|--------------------------------|
      C|--------------------------------|
      
      
      D|--------------------------------|
      A|----3-----5-----6-------6-----6-|
      F|--2-----0-----3-----3-------3---|
      C|0-----2-----3-----3---3---3-----| 2x 
      G|--------------------------------|
      C|--------------------------------|
      
       
      
      D|--------------------------------|
      A|--------------------------------|
      F|--------------------------------|
      C|--------------------------------| 4x 
      G|0-----0-----0-----0-----0---0h1-|
      C|0-----0-----0-----0-----0---0h1-|
      
      
      D|--------------------------------|
      A|--------------------------------|
      F|--------------------------------|
      C|------------------3-------------| 4x 
      G|0-----3-----2-----1-----0-3-2---|
      C|0-----3-----2-----------0-3-2---|
      
      
      D|--------------------------------|
      A|--------------------------------|
      F|--------------------------------|
      C|--------------------------------| 4x
      G|--------------------------------|
      C|5-2-1-2-1-0-5-2-1-2-1-0-5-2-1-2-|
      
        Composição: Slipknot

        Comentários 2

        140 .
        140 cancelar

        conseguiu tocar?

        covers

        Grave um vídeo tocando Slipknot e mande pra gente!

        Ex.: http://www.youtube.com/watch?v=0IvSvIwGdwk
        ver covers de outras músicas »
        0:00 / 0:00

        Capítulos

          1 versão de violão dificuldade exibições contribuição e correção
          1 versão de guitarra dificuldade exibições contribuição e correção
          1 versão de cavaco dificuldade exibições contribuição e correção
          1 versão de teclado dificuldade exibições contribuição e correção
          1 versão de baixo exibições contribuição e correção
          1 versão de Guitar Proformatodownloadscontribuição
          play/pausefechar subir/descer velocidade
          6ª corda E5ª corda A4ª corda D3ª corda G2ª corda B1ª corda E
            acordes
            publicidade
            fechar
            ok