Cifra Club

Vermilion Pt.2

Slipknot

Tab de baixo: Principal
exibições 26.206
(intro / verso)
G|--------------------------------------------------------|
D|--------------------------------------------------------|
A|----------------7-----6----6h7--------------------------| 
E|----4-----6----------------------6-P-7---7h6------------|

G|-----------------------------------------|
D|-----------------------------------------|  (i dont know what to do
A|------7----7-----7------7--7-------------|   when she makes me sad)
E|------7----7-----7------7--7-------------|

G|----------------------------------------|
D|----------------------------------------|  right after he say sad
A|-----7---7-----7--7---7---------7-------|
E|-----7---7-----7--7---7---------7-------|

G|----------------------------------------|
D|----------------------------------------| (i wont let this build up
A|----------------------------------------|  inside of me) thats a ten
E|-3------5-------7----------10-----------|                  

G|----------------------------------------|
D|----------------------------------------| 
A|----------------------------------------|     
E|-3------5-------7--------9-10-----------|  

G|----------------------------------------|
D|----------------------------------------| 
A|-----7---7-----7--7---7---------7-------|
E|-----7---7-----7--7---7---------7-------|

G|----------------------------------------|
D|----------------------------------------| 
A|----------------------------------------|     
E|-3------5-------7----------10-----------|

G|--------------------------------------------------------|
D|--------------------------------------------------------| 
A|----------------7-----6----6h7--------------------------| 
E|----4-----6----------------------6-P-7---7h6------------|
Composição: SlipknotColaboração e revisão:
  • Robian Silva

0 comentários

    mostrar mais comentários

    Conseguiu tocar?

    9tocaram0ainda não

    Grave um vídeo tocando Vermilion Pt.2 e mande pra gente!

    00:00 / 00:00
    outros vídeos desta música
    repetirqualidadeautomática
    Outro vídeos desta música
      00:00 / 00:00
      automática
      OK