Cifra Club

Aprenda

Flo

Smash Mouth

Tab de baixo: Principal
Tabbed By : Jesur16
e-mail: * (can also contact me on my profile)

Tuning: Standard (EADG)
[remember to listen to song for acutual rhythm.]
[rate the tab.]


          (intro)
G|---------------------------|---------------------------|--------------------|
D|---------------------------|---------------------------|--------------------|
A|---------------------4-4-4-|---------------------------|--------------------|
E|-4\2--2-2-2-2-2-2-2--------|-4\2--2-2-2-2-2-2-2--1-1-1-|-4\2--2-2-2-2-2-2---|


G|---------|
D|---------|
A|--4-4-4--|
E|2--------|


    (verse) (play this twice into chorus)
G|-------------------------|----------------------------|
D|-------------------------|----------------------------|
A|---3--6--3-6--3----3---3-|-------------4--4-4-4-3-1---|
E|-4--------------3----3---|-4-4--4-3-1-----------------|


     (chorus)   (FLO!.....)
G|-----------------------------------------------------|---------------------|
D|-----------------------------------------------------|---------------------|
A|---------------3h4--4-4-4-4-4-4--3h4--4-4-4-3-1------|---------------------|
E|-1-1--2-2-2-2----------------------------------------|1-1-1--2-2-2-2--2-2--|


G|-----------------------------------------------------|
D|-----------------------------------------------------|
A|3h4-4-4-4-4-4-4--1-1-1-1-1-1-1-1---------------------|
E|-----------------------------------------------------|

(repeat verse)x2
(repeat chorus)

G|--------------|--------------|--------------|----------------|
D|--------------|--------------|-6\4--4-4-4-4-|----------------|
A|--------------|--------------|--------------|----------------|
E|-4\2--2-2-2-2-|-4\2--2-2-2-2-|--------------|-4\2--2-2-2-2---|


(repeat verse)x2
(repeat chorus)

G|-------------------------|--------------------------|
D|-------------------------|--------------------------|
A|---------4---------4-----|---------4--------4-------|
E|-4-4-4-4---4---4-4---4-4-|-4-4-4-4---4--4-4---4-4---|


   (keyboard solo)
G|----------------------------------------------------|
D|-------------------------3-4-4--4-3-----------------|
A|----------3-6-6-6-6-6--6------------6--4-4--4-3-----|
E|-4-4--4-6---------------------------------------6---|


(repeat verse)x2
(repeat chorus)x2

G|--------------|--------------|--------------|----------------|
D|--------------|--------------|-6\4--4-4-4-4-|----------------|
A|--------------|--------------|--------------|----------------|
E|-4\2--2-2-2-2-|-4\2--2-2-2-2-|--------------|-4\2--2-2-2-2---|


(repeat verse)x2
(repeat chorus)


G|-------------------------|--------------------------|
D|-------------------------|--------------------------|
A|---------4---------4-----|---------4--------4-------|
E|-4-4-4-4---4---4-4---4-4-|-4-4-4-4---4--4-4---4-4---|



| /  slide up
| \  slide down
| h  hammer-on
| p  pull-off
| ~  vibrato
| +  harmonic
| x  Mute note
===============================================================================
Composição de Smash Mouth
739 exibições

0 comentários

Ver todos os comentários

Conseguiu tocar?

0 Tocaram 0 Ainda não

Grave um vídeo tocando Flo e nos envie!

00:00 / 00:00
outros vídeos desta música
repetir qualidade Automático
Outros vídeos desta música
00:00 / 00:00
Automático

Cifra Club Pro

Aproveite o Cifra Club com benefícios exclusivos e sem anúncios
Cifra Club Pro
Aproveite o Cifra Club com benefícios exclusivos e sem anúncios
OK