Cifra Club

Aprenda

Hang On

Smash Mouth

Tab de baixo: Principal
inro
 G|-----------------------------------------|
 D|-----------------------------------------|
 A|-6--------------------6------------------|
 E|----6-6--4-4--1-1--3-----6-6--4-4--1-1---|times 2

 verse
 G|-----------------------------------------|
 D|-----------------------------------------|
 A|---6-6--6--6-6---------------------------|
 E|-5-------------0-3-3--4-5-5-5-0-5-0-3-3--|times 2

 G|------------------------------------------------------|
 D|------------------------------------------------------|
 A|---6-6--6--6-6----------------------------------------|
 E|-5-------------0-3-3--4-5-5-5-0-5-0-5-5-53-3-31-1---|
 
 Bridge
 G|--------------------------------------------|
 D|--------------------------------------------|
 A|--------------------------------------------|
 E|-3-3--3--3-3---9-9--9--3-3--3--1-1--1-1-1-1-|

 G|--------------------------------------------|
 D|--------------------------------------------|
 A|--------------------------------------------|
 E|-9-9--9--3-3--3--1-1--1--1-1--1-3-3--3--3-3-|

 chorus
 G|---------------------------------|
 D|---------------------------------|---
 A|-3-3-3-3-3-3-3-3-----------------|  |
 E|-----------------1-1-1-1-1-1-1-1-|  |
                                       |
 G|---------------------------------|  |
 D|---------------------------------|  |
 A|---------------------------------|  |
 E|-3-3-3-3-3-3-3-3-1-1-1-1-1-1-1-1-| -play twice

 order
 intro
 verse
 bridge
 chorus
 verse
 bridge
 chorus
 chorus (whilst solo)
 bridge
 chorus (times 2)
Composição de G. Celia Camp
Colaboração e revisão:
  • filipe
1.861 exibições

0 comentários

Ver todos os comentários

Conseguiu tocar?

0 Tocaram 0 Ainda não

Grave um vídeo tocando Hang On e nos envie!

00:00 / 00:00
outros vídeos desta música
repetir qualidade Automático
Outros vídeos desta música
00:00 / 00:00
Automático

Cifra Club Pro

Aproveite o Cifra Club com benefícios exclusivos e sem anúncios
Cifra Club Pro
Aproveite o Cifra Club com benefícios exclusivos e sem anúncios
OK