Cifra Club

Aprenda

Walkin On The Sun

Smash Mouth

Cifra: Principal (violão e guitarra)
tom: B (forma dos acordes no tom de C) Afinação: Eb Ab Db Gb Bb Eb
[Riff]
E|--------------------------|
B|--------------------------|
G|--------------------------|
D|----2---4-4------5---4-4--|
A|--0-3-0-5-5----0-6-0-5-5--|
E|--------------------------|

[Primeira Parte]
E|-----------------------|
B|--5----7----8----7--7--|
G|--5----7----9----7--7--|
D|-----------------------|
A|-----------------------|
E|-----------------------|

[Refrão]
E|---------------------------------|
B|---------------------------------|
G|---------------------------------|
D|--5-4-2----2---4-4------5---4-4--|
A|--------0--3-0-5-5----0-6-0-5-5--|
E|---------------------------------|

E|--------------------------|
B|--------------------------|
G|--------------------------|
D|----2---4-4------5---4-4--|
A|--0-3-0-5-5----0-6-0-5-5--|
E|--------------------------|

E|-------------------|
B|-------------------|
G|-------------------|
D|----2---4-4--------|
A|--0-3-0-5-5--------|
E|---------------0~--|

[Primeira Parte]
It ain't no joke, I'd like to buy the world a toke
And teach the world to sing in perfect harmony
And teach the world to snuff the fires and the liars
Hey, I know it's just a song but it's the spice for recipe

This is a love attack, I know, it went out but it's back
It's just like any fad, it retracts before impact
And just like fashion, it's a passion for the with it and the hip
if ya' got the goods, they'll come and buy it just to stay in 
the clique

[Refrão]
So don't delay, act now, supplies are running out
Allow if you're still alive, six to eight years to arrive
And if you follow there maybe a tomorrow 
But if the offer is shun, you might as well be walkin' on the sun

[Segunda Parte]
Twenty-five years ago they spoke out and they broke out
Of recession and oppression and together they toked
And they folked out on guitars around a bonfire
Just singin' and clappin' man what the hell happened?

Then some were spellbound, some were hellbound
Some they fell down and some got back up and
Fought back against the melt down
And their kids are hippie chicks all hypocrites
Because fashion is smashin' the true meaning of it

[Refrão]

[Terceira Parte]
It ain't no joke when mama's handkerchief is soaked
With her tears because her baby's life has been revoked
The bond is broke up so choke up and focus on the close up
Mr. Wizard can't perform no God-like hocus-pocus

So don't just sit back, kick back and watch the world get bushwacked
News at 10:00 your neighborhood is under attack
Put away the crack before the crack puts you away
You need to be there when your baby is old enough to relate

[Refrão]
Composição de Smash Mouth
Colaboração e revisão:
  • Matheus Bastos
22.862 exibições
    • ½ Tom
    • A
    • Bb
    • B
    • C
    • Db
    • D
    • Eb
    • E
    • F
    • F#
    • G
    • Ab
  • Adicionar à lista

    0 comentários

    Ver todos os comentários

    Conseguiu tocar?

    0 Tocaram 0 Ainda não

    Grave um vídeo tocando Walkin On The Sun e nos envie!

    00:00 / 00:00
    outros vídeos desta música
    repetir qualidade Automático
    Outros vídeos desta música
    00:00 / 00:00
    Automático

    Cifra Club Pro

    Aproveite o Cifra Club com benefícios exclusivos e sem anúncios
    Cifra Club Pro
    Aproveite o Cifra Club com benefícios exclusivos e sem anúncios
    OK