Cifra Club

Aprenda

Nuthin But A G Thang

Snoop Dogg

Cifra: Principal (violão e guitarra)
tom: Bm
  Bm      E       F#m 
E|---7--7-----------------------------------|
B|-7-------5---5---10--10--11---------------|
G|-7-------4---4-----------11---------------|
D|-9-------6---6-----------9----------------|
A|------------------------------------------|
E|------------------------------------------|

E|------------------------------------|
B|------------------------------------|
G|------------------------------------|
D|------------0-2-4----0-2-4----------|
A|2-0---2---4--------4-------2-0---0--|
E|----2--------------------------2----|
Composição de Snoop Dogg
Colaboração e revisão:
  • Gabriel Cheredre
2.261 exibições
    • ½ Tom
    • Am
    • Bbm
    • Bm
    • Cm
    • C#m
    • Dm
    • Ebm
    • Em
    • Fm
    • F#m
    • Gm
    • G#m
  • Adicionar à lista

    0 comentários

    Ver todos os comentários

    Conseguiu tocar?

    0 Tocaram 0 Ainda não

    Grave um vídeo tocando Nuthin But A G Thang e nos envie!

    00:00 / 00:00
    outros vídeos desta música
    repetir qualidade Automático
    Outros vídeos desta música
    00:00 / 00:00
    Automático

    Cifra Club Pro

    Aproveite o Cifra Club com benefícios exclusivos e sem anúncios
    Cifra Club Pro
    Aproveite o Cifra Club com benefícios exclusivos e sem anúncios
    OK