15 Minutes Old

Snow Patrol

tom: D
Intro:
E|---------------------------------------------------|
B|---------------------------------------------------|
G|---------------------------------------------------|
D|---2/4--0---0---0----------------------------------|
A|----------5---4---4-5------------------------------|
E|---------------------------------------------------|

Ponte:
E|---------------------------------------------------|
B|---------------------------------------------------|
G|---------------------------------------------------|
D|---0-----0-----0-----------------------------------|
A|------4-----4------4-------------------------------|
E|---------------------------------------------------|

Refrão:
E|---------------------------------------------------|
B|---------------------------------------------------|
G|---------------------------------------------------|
D|------0---0------0---0-----0---0-------0---0-------|
A|---5----5------4---4-----2---2------4---4----------|
E|---------------------------------------------------|
Página 1 / 1

Letras e título
Acordes e artista

resetar configurações
OK