Cifra Club

An Olive Grove Facing The Sea

Snow Patrol

Tab de baixo: Principal
exibições 544
Standard Tuning EADG

Intro (Guitar)

Verse 0.20
G|-------------------------------|
D|-------------------------------| 
A|-5/6-6-6-6-6-6-6\5-5-5-3-3-3-3-|
E|-------------------------------|

G|-------------------------------------------------|
D|-------------------------------------------------| X3
A|-0h1~----0h1~----0h1/6-6-6-6-6-6-6\5-5-5-3-3-3-3-|
E|-------------------------------------------------|

Pre Chorus
G|-----------------------------|
D|-----------------------------|
A|-5-5-5-5-5-5-5-8-8-8-8-8-8-8-|
E|-----------------------------|

Chorus
G|---------------------------------------------------------------------------------|
D|---------------------------------------------------------------------------------|
A|-10-10-10-10-10-10-10-10-10-10-10-10-10-10-10\0-0-0-0-0-0-0-7-7-7-7-7-7-7-8-8-8-8-8-8-8-|
E|---------------------------------------------------------------------------------|

G|--------------------------------------------------------------------------------|
D|--------------------------------------------------------------------------------|
A|-10-10-10-10-10-10-10-12-12-12-12-12-12-12-7-7-7-7-7-7-7-8-8-8-8-8-8-8-10-10-10-10-10-10-10\-|
E|--------------------------------------------------------------------------------|

G|---------------------------------------------------------=========--|
D|--------------------------------------------------------------------|
A|-0-0-0-0-0-0-0-2-2-2-2-2-2-2-3-3-3-3-3-3-3-10-10-10-10-10-10-10-12~-|
E|-----------------------------------------------------------=========|

G|---------------------------------------------------------=========-------------|
D|-------------------------------------------------------------------------------|
A|-7-7-7-7-7-7-7-8-8-8-8-8-8-8-10-10-10-10\8-8-8/10-6-6-6-6-8-8-8-8-6~---5~---3~-|
E|-----------------------------------------------------------=========-----------|

Verse
G|-------------------------------------------------|
D|-------------------------------------------------| X4
A|-0h1~----0h1~----0h1/6-6-6-6-6-6-6\5-5-5-3-3-3-3-|
E|-------------------------------------------------|

Pre Chorus
G|-----------------------------|
D|-----------------------------|
A|-5-5-5-5-5-5-5-8-8-8-8-8-8-8-|
E|-----------------------------|

Chorus
G|---------------------------------------------------------------------------------|
D|---------------------------------------------------------------------------------|
A|-10-10-10-10-10-10-10-10-10-10-10-10-10-10-10\0-0-0-0-0-0-0-7-7-7-7-7-7-7-8-8-8-8-8-8-8-|
E|---------------------------------------------------------------------------------|

G|--------------------------------------------------------------------------------|
D|--------------------------------------------------------------------------------|
A|-10-10-10-10-10-10-10-12-12-12-12-12-12-12-7-7-7-7-7-7-7-8-8-8-8-8-8-8-10-10-10-10-10-10-10\-|
E|--------------------------------------------------------------------------------|

G|---------------------------------------------------------=========--|
D|--------------------------------------------------------------------|
A|-0-0-0-0-0-0-0-2-2-2-2-2-2-2-3-3-3-3-3-3-3-10-10-10-10-10-10-10-12~-|
E|-----------------------------------------------------------=========|

G|---------------------------------------------------------=========|
D|------------------------------------------------------------------|
A|-7-7-7-7-7-7-7-8-8-8-8-8-8-8-10-10-10-10\8-8-8/10-6-6-6-6-8-8-8-8-|
E|-----------------------------------------------------------=======|

G|---------------------------------------------------------=========-------------|
D|-------------------------------------------------------------------------------|
A|-7-7-7-7-7-7-7-8-8-8-8-8-8-8-10-10-10-10\8-8-8/10-6-6-6-6-8-8-8-8-6~---5~---3~-|
E|-----------------------------------------------------------=========-----------|

Outro
G|-----------------------------------|
D|-----------------------------------|
A|-0h1~----0h1~----0h1-----0h1~----1-|
E|-----------------------------------|


That’s what I think it goes like
Please rate it and email me if you have any problems, *

Adam Vaughan

0 comentários

    mostrar mais comentários

    Conseguiu tocar?

    0tocaram0ainda não

    Grave um vídeo tocando An Olive Grove Facing The Sea e mande pra gente!

    00:00 / 00:00
    outros vídeos desta música
    repetirqualidadeautomática
    Outro vídeos desta música
      00:00 / 00:00
      automática
      OK