Cifra Club

Called Out In The Dark

Snow Patrol

Tab de baixo: Principal
exibições 1.267
Intro 1:

G|-5-5--5-5-5--5-2-2--2------------------------------------|
D|----------------------2-2--2-3-3--3-3-3--3-3-3--3-3-3--3-| x9
A|---------------------------------------------------------|
E|---------------------------------------------------------|

Ou

Intro 2:

G|-5-5--5-5-5--5-------------------------------------------|
D|---------------7-7--7------------------------------------|x9
A|----------------------7-7--7-8-8--8-8-8--8-8-8--8-8-8--8-|
E|---------------------------------------------------------|

Refrão:

G|-------------------------------------------------------------------------|
D|-----7------7------7------7-------5------5------5------5------3------3---|
A|-5-7---5--7---5--7---5--7---5---5---3--5---3--5---3--5---3--3---1--3---1-|
E|------------------------------5------------------------------------------|

G|-------------------------------------------|
D|---3------3-------7------7------5------5---|
A|-3---1--3---1---7---5--7---5--5---3--5---3-|
E|--------------3----------------------------|

G|-------------------------------------------------------------------------|
D|-----7------7------7------7-------5------5------5------5------3------3---|
A|-5-7---5--7---5--7---5--7---5---5---3--5---3--5---3--5---3--3---1--3---1-|
E|------------------------------5------------------------------------------|

G|------------------------------------------|
D|---3------3------7------7------5------5---|
A|-3---1--3---1--7---5--7---5--5---3--5---3-|
E|------------------------------------------|

G|-------------------------------------------------------------------------|
D|-----7------7------7------7-------5------5------5------5------3------3---|
A|-5-7---5--7---5--7---5--7---5---5---3--5---3--5---3--5---3--3---1--3---1-|
E|------------------------------5------------------------------------------|

G|------------------------------------------|
D|---3------3------7------7------5------5---|
A|-3---1--3---1--7---5--7---5--5---3--5---3-|
E|------------------------------------------|

G|-5-5--5-5-5--5-------------------------------------------|
D|---------------7-7--7------------------------------------|x4
A|----------------------7-7--7-8-8--8-8-8--8-8-8--8-8-8--8-|
E|---------------------------------------------------------|

G|-------------------------------------------------------------------------|
D|-----7------7------7------7-------5------5------5------5------3------3---|
A|-5-7---5--7---5--7---5--7---5---5---3--5---3--5---3--5---3--3---1--3---1-|
E|------------------------------5------------------------------------------|

G|-------------------------------------------|
D|---3------3-------7------7------5------5---|
A|-3---1--3---1---7---5--7---5--5---3--5---3-|
E|--------------3----------------------------|

G|-------------------------------------------------------------------------|
D|-----7------7------7------7-------5------5------5------5------3------3---|
A|-5-7---5--7---5--7---5--7---5---5---3--5---3--5---3--5---3--3---1--3---1-|
E|------------------------------5------------------------------------------|

G|------------------------------------------|
D|---3------3------7------7------5------5---|
A|-3---1--3---1--7---5--7---5--5---3--5---3-|
E|------------------------------------------|

G|-------------------------------------------------------------------------|
D|-----7------7------7------7-------5------5------5------5------3------3---|
A|-5-7---5--7---5--7---5--7---5---5---3--5---3--5---3--5---3--3---1--3---1-|
E|------------------------------5------------------------------------------|

G|------------------------------------------|
D|---3------3------7------7------5------5---|
A|-3---1--3---1--7---5--7---5--5---3--5---3-|
E|------------------------------------------|

G|-------------------------------------------------------------------------|
D|-----7------7------7------7-------5------5------5------5------3------3---|
A|-5-7---5--7---5--7---5--7---5---5---3--5---3--5---3--5---3--3---1--3---1-|
E|------------------------------5------------------------------------------|

G|------------------------------------------|
D|---3------3------7------7------5------5---|
A|-3---1--3---1--7---5--7---5--5---3--5---3-|
E|------------------------------------------|

G|-------------------------------------------------------------------------|
D|-----7------7------7------7-------5------5------5------5------3------3---|
A|-5-7---5--7---5--7---5--7---5---5---3--5---3--5---3--5---3--3---1--3---1-|
E|------------------------------5------------------------------------------|

G|------------------------------------------|
D|---3------3------7------7------5------5---|
A|-3---1--3---1--7---5--7---5--5---3--5---3-|
E|------------------------------------------|

G|-5-5--5-5-5--5-5-5--5-5-5-|
D|--------------------------|
A|--------------------------|
E|--------------------------|
Composição: ConnollyColaboração e revisão:
  • Renan Neumann

0 comentários

    mostrar mais comentários

    Conseguiu tocar?

    2tocaram0ainda não

    Grave um vídeo tocando Called Out In The Dark e mande pra gente!

    00:00 / 00:00
    outros vídeos desta música
    repetirqualidadeautomática
    Outro vídeos desta música
      00:00 / 00:00
      automática
      OK