Cifra Club

Chasing Cars

Snow Patrol

Cifra: Principal
exibições 32.504
Tom: A
Intro: A
E|----------------|
B|----5---5-------|   (8x)
G|----------------|
D|--7---7---------|
A|----------------|
E|----------------|
        A                                E                                 D
E|-----------------------------------------------------------------------------------------------------|
B|----5---5---5---5---5---5---5---5---5---5---5---5---5---5---5---5---5---5---5---5---5---5---5---5----|
G|-----------------------------------------------------------------------------------------------------|
D|--7---7---7---7---7---7---7---7---6---6---6---6---6---6---6---6---4---4---4---4---4---4---4---4------|
A|-----------------------------------------------------------------------------------------------------|
E|-----------------------------------------------------------------------------------------------------|

A               E       D             A
We'll do it all, everything, on our own.
A          E        D         A
We don't need anything, or anyone.

    A                   E
If I lay here, if I just lay here
                D                           A
Would you lie with me, and just forget the world.

A              E           D            A
I don't quite know how to say how I feel
A               E               D               A
Those three words, I said too much, but not enough.

A                       E
If I lay here, if I just lay here
           D                            A
Would you lie with me, and just forget the world.
A                                       E
Forget what we're told, before we get too old
           D                            A
Show me a garden that's bursting into life.

A               E           D                A
Let's waste time, chasing cars, around our heads.
A               E           D               A
I need your grace to remind me, to find my own.

A                       E
If I lay here, if I just lay here
                D                          A
Would you lie with me, and just forget the world.
A                                       E
Forget what we're told, before we get too old
           D                            A
Show me a garden that's bursting into life.

A                       E
All that I am, all that I ever was
                        D                       A
Is here in your perfect eyes, they're all I can see
A                                  E
I don't know where, confused about how as well
                        D                               A
just know that these things will never change for us at all.

A                       E
If I lay here, if I just lay here
                D                       A
Would you lie with me, and just forget the world.
Acordes para:
    Composição: Gary Lightbody / Jonny Quinn / Nathan Connolly / Tom SimpsonColaboração e revisão:
    • André Passos

    0 comentários

      mostrar mais comentários

      Conseguiu tocar?

      7tocaram0ainda não

      Grave um vídeo tocando Chasing Cars e mande pra gente!

      00:00 / 00:00
      outros vídeos desta música
      repetirqualidadeautomática
      Outro vídeos desta música
        00:00 / 00:00
        automática
        OK