Grazed Knees

Snow Patrol

Composição de: Gary Lightbody / Jonny Quinn / Mark McClelland / Nathan Connolly
tom: F
Verso
 
e|--------------------------------------------------------------------
b|----------------------1-----1---------------------------------------
g|-----5-----5--------------------------------------------------------
D|---3-----3-----3----3-----3-----3------3-----3----------3-----3-----
A|-0----------------1------------------3-----3-----3----3-----3-----3-
E|-----------------------------------1----------------1---------------
 
Refrão
 
e|-------------------------------------------------------------------
b|-------------------------------------------------------------------
g|-----5-----5----------3-----3----------5-----5----------3-----3----
D|---5-----5-----5----3-----3-----3----5-----5-----5----3-----3----3-
A|-3----------------1----------------3----------------1--------------
E|-------------------------------------------------------------------
Página 1 / 1

Letras e título
Acordes e artista

resetar configurações
OK