Cifra Club

In The End

Snow Patrol

Cifra: Principal
exibições 2.299
Tom: C
Intro:
E|---------------------------------------------------------------3-----|
B|----3------5------------------1-----3--------5-----------------------|
G|----------------2---0---2-----0-------------------2---0-----2--0-----|
D|----0-----------0-------2-----2-----0-------------0---------2--------|
A|------------------------0-----3-----------------------------0--------|
E|---------------------------------------------------------------------|


Verso 1:
F                  G
It's the price I guess
          Am7        C
For the lies I've told
F                      G               Am   C
That the truth it, no longer thrills me

     F             G
And why can't we laugh?
          Am7       C
When it's all we have
  F                  G              Am C
Have we put these childish things away?
 F                  G                Am C
Have we lost the magic that we once had?

Refrão:
       F  G          Am  C
In the end, in the end
         F              G                   Am  C
There's nothing more to life than love, is there?
       F  G          Am  C
In the end, in the end
F                    G                Am C
It's time for us to lose our weary minds

Verso 2:
         F          G
Will you dance with me?
           Am     C
Like we used to dance
         F            G      Am   C
And remember how to move together
    F       G
You are the torch
       Am        C
And it all makes sense
F            G           Am  C
I've waited here for you forever
F            G           Am  C
I've waited here for you forever

Refrão:
       F  G          Am  C
In the end, in the end
         F              G                   Am  C
There's nothing more to life than love, is there?
       F  G          Am  C
In the end, in the end
F                    G                Am C
It's time for us to lose our weary minds

Intervalo: (Am  G  F) 2x

Ponte:
       Am           G           F
We're lost 'til we learn how to ask
       Am           G           F
We're lost 'til we learn how to ask
        Am           G           F
We are lost 'til we learn how to ask
        Am  G          F
So please, please just ask
Solo:
E|-----------3----5-s-8----7--------------|
B|-----5----------------------3----5------|
G|----------------------------------------|
D|----------------------------------------|
A|----------------------------------------|
E|----------------------------------------| (2x)
              B
E|---5---3------------------|
B|-----------3----5---------|
G|--------------------------|
D|--------------------------|
A|--------------------------|
E|--------------------------|


Refrão:
       F  G          Am  C
In the end, in the end
         F              G                   Am  C
There's nothing more to life than love, is there?
       F  G          Am  C
In the end, in the end
F                    G                Am C
It's time for us to lose our weary minds
 F              G                   Am  C
There's nothing more to life than love, is there?
Acordes para:
    Composição: ConnollyColaboração e revisão:
    • Rafael

    0 comentários

      mostrar mais comentários

      Conseguiu tocar?

      0tocaram0ainda não

      Grave um vídeo tocando In The End e mande pra gente!

      00:00 / 00:00
      outros vídeos desta música
      repetirqualidadeautomática
      Outro vídeos desta música
        00:00 / 00:00
        automática
        OK