Nyc

Snow Patrol

Composição de: Snow Patrol
tom: E
Tabbed by: Wade

Tuning: Standard

CHORDS (strumming pattern not included)

Verse-

        E            A  
e|---0------0---|
B|---0------0---|
G|---13-----6---|
D|---14-----7---|
A|---14-----7---|
E|---12-----5---|

Pre-Chorus-

        Fb      A       E
e|---0----0----0---|
B|---0----0----0---|
G|---3----6----1---|
D|---4----7----2---|
A|---4----7----2---|
E|---2----5----0---|

Chorus- 

         B       Gb     A       G
e|---0----0----0----0---------------------------------------------------------|
B|---0----0----0----0---------------------------------------------------------|
G|---8----5----6----4---------------------------------------------------------|
D|---9----6----7----5---------------------------------------------------------|
A|---9----6----7----5---------------------------------------------------------|
E|---7----4----5----3---------------------------------------------------------|
Página 1 / 1

Letras e título
Acordes e artista

resetar configurações
OK