One Night Is Not Enough

Snow Patrol

Composição de: Gary Lightbody / Jonny Quinn / Mark McClelland
tom: F
Tabbed by: Michael
tunning: standard

and is one of the best tracks on the album and just a great song. I havent found any tabs 
this song so i hope this one helps, sorry i couldnt tab out the solo


Intro/Verse
e|---------0---|---2--------|
b|---1-----1---|---2--------|
g|---2-----2---|---0--------|
d|---2-----3---|---0--------|
a|---0-----3---|---1--------|
E|---------1---|---2--------|

lead bit before chorus
e|---------------------------|
b|---------------------------|
g|-----5h7------5h7---5--0---|
d|---------------------------|
a|---------------------------|
E|---------------------------|

chorus
e|---0-------|--2-------|
b|---1----0--|--2-------|
g|---2----1--|--0-------|
d|---3----2--|--0-------|
a|---3----2--|--1-------|
E|---1-------|--2-------|

key
h = hammer on
Página 1 / 1

Letras e título
Acordes e artista

resetar configurações
OK