Post Punk Progression

Snow Patrol

Composição de: Lee Potter
tom: Bb
Tabbed By: Trent Steel

Guitar 1 = Gary Lightbody
Guitar 2 = Nathan Connolly
Bass     = Mark McClelland
Drums    = Jonny Quinn

r = ring
~ = vibrate
b = bend
/ = slide
pm= palm mute


Intro/Chorus:

 Guitar 1&2
e|------------------------------------------------------------|
B|------------------------------------------------------------|
G|-8-8-8--7-7-7--3-3-3-3-3------------------------------------|  
D|-8-8-8--7-7-7--3-3-3-3-3------------------------------------|
A|-6-6-6--5-5-5--1-1-1-1-1------------------------------------|
E|------------------------------------------------------------|

 Bass           
G|------------------------------------------------------------|
D|------------------------------------------------------------|
A|------------------------------------------------------------|
E|-1010101010-9999999/5555555555------------------------------|
 


Verse:          
 
 Guitar 1&2     "You wont be around for long my love"
                "You gotta grab life with both hands"
e|------------------------------------------------------------|
B|------------------------------------------------------------|
G|-3-3-3-3-3--7-7-7-8-8-8-7-7-7-------------------------------|  
D|-3-3-3-3-3--7-7-7-8-8-8-7-7-7-------------------------------|
A|-1-1-1-1-1--5-5-5-6-6-6-5-5-5-------------------------------|
E|------------------------------------------------------------|

 Bass           
G|------------------------------------------------------------|
D|------------------------------------------------------------|
A|-11111-5555666555-------------------------------------------|
E|------------------------------------------------------------|
Página 1 / 1

Letras e título
Acordes e artista

resetar configurações
OK