Cifra Club

Aprenda

Take Back The City

Snow Patrol

Cifra: Principal (violão e guitarra)
tom: Ab
Intro
e|---------------------------------------------------------------------------|
B|---------------------------------------------------------------------------|
G|---------------------------------------------------------------------------|
D|---------------------------------------------------------------------------|
A|--11--11--11--11--10--10--10--10--8--8--8--8--8--8--8----------------------|
E|--11--11--11--11--11--11--11--11--6--6--6--6--6--6--6----------------------|

e|---------------------------------------------------------------------------|
B|---------------------------------------------------------------------------|
G|---------------------------------------------------------------------------|
D|---------------------------------------------------------------------------|
A|--11--11--11--11--10--10--10--10--8--8--8--8--8--8--8----------------------|
E|--11--11--11--11--11--11--11--11--6--6--6--6--6--6--6----------------------|

e|---------------------------------------------------------------------------|
B|---------------------------------------------------------------------------|
G|---------------------------------------------------------------------------|
D|---------------------------------------------------------------------------|
A|--11--11--11--11--10--10--10--10--8--8--8--8--8--8--8--13--13--13--13--13--|
E|--11--11--11--11--11--11--11--11--6--6--6--6--6--6--6--11--11--11--11--11--|

e|---------------------------------------------------------------------------|
B|---------------------------------------------------------------------------|
G|---------------------------------------------------------------------------|
D|---------------------------------------------------------------------------|
A|--13--13--13--13--13--13--13-----------------------------------------------|
E|--11--11--11--11--11--11--11-----------------------------------------------|

Verse
e|---------------------------------------------------------------------------|
B|---------------------------------------------------------------------------|
G|---------------------------------------------------------------------------|
D|---------------------------------------------------------------------------|
A|--11--11--11--11--10--10--10--10--8--8--8--8--8--8--8----------------------|
E|--11--11--11--11--11--11--11--11--6--6--6--6--6--6--6----------------------|
    Take back the city for yourself tonight 

e|---------------------------------------------------------------------------|
B|---------------------------------------------------------------------------|
G|---------------------------------------------------------------------------|
D|---------------------------------------------------------------------------|
A|--11--11--11--11--10--10--10--10--8--8--8--8--8--8--8----------------------|
E|--11--11--11--11--11--11--11--11--6--6--6--6--6--6--6----------------------|
    I'll take back the city for me 


e|---------------------------------------------------------------------------|
B|---------------------------------------------------------------------------|
G|---------------------------------------------------------------------------|
D|---------------------------------------------------------------------------|
A|--11--11--11--11--10--10--10--10--8--8--8--8--8--8--8--13--13--13--13--13--|
E|--11--11--11--11--11--11--11--11--6--6--6--6--6--6--6--11--11--11--11--11--|
    Take back the city for yourself tonight              Whoa


e|---------------------------------------------------------------------------|
B|---------------------------------------------------------------------------|
G|---------------------------------------------------------------------------|
D|---------------------------------------------------------------------------|
A|--13--13--13--13--13--13--13-----------------------------------------------|
E|--11--11--11--11--11--11--11-----------------------------------------------|
    Whoa

e|---------------------------------------------------------------------------|
B|---------------------------------------------------------------------------|
G|---------------------------------------------------------------------------|
D|---------------------------------------------------------------------------|
A|--11--11--11--11--10--10--10--10--8--8--8--8--8--8--8----------------------|
E|--11--11--11--11--11--11--11--11--6--6--6--6--6--6--6----------------------|
    God knows you put your life into it's hands  

e|---------------------------------------------------------------------------|
B|---------------------------------------------------------------------------|
G|---------------------------------------------------------------------------|
D|---------------------------------------------------------------------------|
A|--11--11--11--11--10--10--10--10--8--8--8--8--8--8--8----------------------|
E|--11--11--11--11--11--11--11--11--6--6--6--6--6--6--6----------------------|
    And it's both cradled you and crushed  


e|---------------------------------------------------------------------------|
B|---------------------------------------------------------------------------|
G|---------------------------------------------------------------------------|
D|---------------------------------------------------------------------------|
A|--11--11--11--11--10--10--10--10--8--8--8--8--8--8--8--13--13--13--13--13--|
E|--11--11--11--11--11--11--11--11--6--6--6--6--6--6--6--11--11--11--11--11--|
    But now it's time to make your own demands               Whoa


e|---------------------------------------------------------------------------|
B|---------------------------------------------------------------------------|
G|---------------------------------------------------------------------------|
D|---------------------------------------------------------------------------|
A|--13--13--13--13--13--13--13-----------------------------------------------|
E|--11--11--11--11--11--11--11-----------------------------------------------|
    Whoa

e|---------------------------------------------------------------------------|
B|---------------------------------------------------------------------------|
G|---------------------------------------------------------------------------|
D|---------------------------------------------------------------------------|
A|--11--11--11--11--10--10--10--10--8--8--8--8--8--8--8----------------------|
E|--11--11--11--11--11--11--11--11--6--6--6--6--6--6--6----------------------|
    All these years later and it's killing me  

e|---------------------------------------------------------------------------|
B|---------------------------------------------------------------------------|
G|---------------------------------------------------------------------------|
D|---------------------------------------------------------------------------|
A|--11--11--11--11--10--10--10--10--8--8--8--8--8--8--8----------------------|
E|--11--11--11--11--11--11--11--11--6--6--6--6--6--6--6----------------------|
    Your broken records in words  


e|---------------------------------------------------------------------------|
B|---------------------------------------------------------------------------|
G|---------------------------------------------------------------------------|
D|---------------------------------------------------------------------------|
A|--11--11--11--11--10--10--10--10--8--8--8--8--8--8--8--13--13--13--13--13--|
E|--11--11--11--11--11--11--11--11--6--6--6--6--6--6--6--11--11--11--11--11--|
    Ten thousand craters where it all should be                Whoa


e|---------------------------------------------------------------------------|
B|---------------------------------------------------------------------------|
G|---------------------------------------------------------------------------|
D|---------------------------------------------------------------------------|
A|--13--13--13--13--13--13--13-----------------------------------------------|
E|--11--11--11--11--11--11--11-----------------------------------------------|
    Whoa

e|---------------------------------------------------------------------------|
B|---------------------------------------------------------------------------|
G|---------------------------------------------------------------------------|
D|---------------------------------------------------------------------------|
A|--11--11--11--11--10--10--10--10--8--8--8--8--8--8--8----------------------|
E|--11--11--11--11--11--11--11--11--6--6--6--6--6--6--6----------------------|
    No need to put your words into my mouth 

e|---------------------------------------------------------------------------|
B|---------------------------------------------------------------------------|
G|---------------------------------------------------------------------------|
D|---------------------------------------------------------------------------|
A|--11--11--11--11--10--10--10--10--8--8--8--8--8--8--8----------------------|
E|--11--11--11--11--11--11--11--11--6--6--6--6--6--6--6----------------------|
   Don't need convincing at all 


e|---------------------------------------------------------------------------|
B|---------------------------------------------------------------------------|
G|---------------------------------------------------------------------------|
D|---------------------------------------------------------------------------|
A|--11--11--11--11--10--10--10--10--8--8--8--8--8--8--8--13--13--13--13--13--|
E|--11--11--11--11--11--11--11--11--6--6--6--6--6--6--6--11--11--11--11--11--|
    I love this place enough to have no doubts                 Whoa


e|---------------------------------------------------------------------------|
B|---------------------------------------------------------------------------|
G|---------------------------------------------------------------------------|
D|---------------------------------------------------------------------------|
A|--13--13--13--13--13--13--13-----------------------------------------------|
E|--11--11--11--11--11--11--11-----------------------------------------------|
    Whoa

Chorus
e|---------------------------------------------------------------------------|
B|---------------------------------------------------------------------------|
G|---------------------------------------------------------------------------|
D|--8-8-8-8--6-6-6-6--13-13-13-13--11-11-11-11-------------------------------|
A|--8-8-8-8--6-6-6-6--13-13-13-13--11-11-11-11-------------------------------|
E|--6-6-6-6--4-4-4-4--11-11-11-11--9--9--9--9--------------------------------|
    It's a mess,    it's a start   It's a flawed work of art 

e|---------------------------------------------------------------------------|
B|---------------------------------------------------------------------------|
G|---------------------------------------------------------------------------|
D|--8-8-8-8--6-6-6-6--13-13-13-13--11-11-11-11-------------------------------|
A|--8-8-8-8--6-6-6-6--13-13-13-13--11-11-11-11-------------------------------|
E|--6-6-6-6--4-4-4-4--11-11-11-11--9--9--9--9--------------------------------|
  Your city, your call Every crack, every wall 

e|---------------------------------------------------------------------------|
B|---------------------------------------------------------------------------|
G|---------------------------------------------------------------------------|
D|--8-8-8-8--6-6-6-6--13-13-13-13--11-11-11-11-------------------------------|
A|--8-8-8-8--6-6-6-6--13-13-13-13--11-11-11-11-------------------------------|
E|--6-6-6-6--4-4-4-4--11-11-11-11--9--9--9--9--------------------------------|
 Pick a side, pick a fight Get your epitaph right 

e|---------------------------------------------------------------------------|
B|---------------------------------------------------------------------------|
G|---------------------------------------------------------------------------|
D|--8-8-8-8--6-6-6-6--13-13-13-13--11-11-11-11-------------------------------|
A|--8-8-8-8--6-6-6-6--13-13-13-13--11-11-11-11-------------------------------|
E|--6-6-6-6--4-4-4-4--11-11-11-11--9--9--9--9--------------------------------|
   You can sing, 'til you drop 'Cause the fun just never stops 

e|---------------------------------------------------------------------------|
B|---------------------------------------------------------------------------|
G|---------------------------------------------------------------------------|
D|--8-8-8-8-8-8-8-8--11-11-11-11--10-10-10-10--------------------------------|
A|--8-8-8-8-8-8-8-8--11-11-11-11--11-11-11-11--------------------------------|
E|--6-6-6-6-6-6-6-6--9--9--9--9---9--9--9--9---------------------------------|
  I love this city tonight I love this city always 

e|---------------------------------------------------------------------------|
B|---------------------------------------------------------------------------|
G|---------------------------------------------------------------------------|
D|--8-8-8-8-8-8-8-8--11-11-11-11--10-10-10-10--------------------------------|
A|--8-8-8-8-8-8-8-8--11-11-11-11--11-11-11-11--------------------------------|
E|--6-6-6-6-6-6-6-6--9--9--9--9---9--9--9--9---------------------------------|
 It bears it's teeth like a light And spits me out after day's 

e|---------------------------------------------------------------------------|
B|---------------------------------------------------------------------------|
G|---------------------------------------------------------------------------|
D|--8-8-8-8-8-8-8-8--11-11-11-11--10-10-10-10--------------------------------|
A|--8-8-8-8-8-8-8-8--11-11-11-11--11-11-11-11--------------------------------|
E|--6-6-6-6-6-6-6-6--9--9--9--9---9--9--9--9---------------------------------|
 But we're all gluttons for it We know what's wrong and what's right 

e|---------------------------------------------------------------------------|
B|---------------------------------------------------------------------------|
G|---------------------------------------------------------------------------|
D|--8-8-8-8-8-8-8-8--11-11-11-11--10-10-10-10--------------------------------|
A|--8-8-8-8-8-8-8-8--11-11-11-11--11-11-11-11--------------------------------|
E|--6-6-6-6-6-6-6-6--9--9--9--9---9--9--9--9---------------------------------|
  For every time it's been hit Take back the city tonight 

Continua até o fim...
Composição de Gary Lightbody / Jonny Quinn / Nathan Connolly / Tom Simpson
Colaboração e revisão:
  • Nícolas Anderson
6.352 exibições
    • ½ Tom
    • A
    • Bb
    • B
    • C
    • Db
    • D
    • Eb
    • E
    • F
    • F#
    • G
    • Ab
  • Adicionar à lista

    0 comentários

    Ver todos os comentários

    Conseguiu tocar?

    1 Tocaram 0 Ainda não

    Grave um vídeo tocando Take Back The City e nos envie!

    00:00 / 00:00
    outros vídeos desta música
    repetir qualidade Automático
    Outros vídeos desta música
    00:00 / 00:00
    Automático

    Cifra Club Pro

    Aproveite o Cifra Club com benefícios exclusivos e sem anúncios
    Cifra Club Pro
    Aproveite o Cifra Club com benefícios exclusivos e sem anúncios
    OK