Keaton's Song

Soko

Composição de: Stéphanie Sokolinski
tom: G
E|-----------------------------------------0---------------------0-----------|
B|----------------------------------------------0---------------------0------|
G|-----5----5/---7----7/---9---9/--10----------------10----10----------------|
D|---------------------------------------------------------------------------|
A|---------------------------------------------------------------------------|
E|--5-----5/--7---7/---8---8/----10----10----10---10----10----10---10----10--|

E|----------------------------------------0-------------------0--------------|
B|--------------------------------------------0-------------------0----------|
G|-----4---4\----2---2/----4---4/----5-------------5----5--------------------|
D|---------------------------------------------------------------------------|
A|---------------------------------------------------------------------------|
E|---3---3\---1----1/---3----3/---5----5----5----5----5----5----5----5-------|

E|-----------------------------------------0---------------------0-----------|
B|----------------------------------------------0---------------------0------|
G|-----5----5/---7----7/---9---9/--10----------------10----10----------------|
D|---------------------------------------------------------------------------|
A|---------------------------------------------------------------------------|
E|--5-----5/--7---7/---8---8/----10----10----10---10----10----10---10----10--|

E|---------------------------------------------------------------------------|
B|---------------------------------------------------------------------------|
G|------14---14\---12---12\---10---10\---9---9\---4---4\---2---2/---4---4/---|
D|---------------------------------------------------------------------------|
A|---------------------------------------------------------------------------|
E|---13---13\---12---12\---10---10\---8---8\---3---3\---1---1/---3---3/------|

E|----------0---------------0------------------------------------------------|
B|--------------0---------------0--------------------------------------------|
G|------5-----------5---5----------------------------------------------------|
D|---------------------------------------------------------------------------|
A|---------------------------------------------------------------------------|
E|----5---5---5---5---5---5---5---5------------------------------------------|

Página 1 / 1

Letras e título
Acordes e artista

resetar configurações
OK