Cifra Club

Eu Navegarei

Som da Paz

Cifra: Principal (violão e guitarra)
tom: C
Intro: Am G F E

Solo de introdução:
E|-----------------------5-5-5-3-3---3-1-0---0-1---1-1-1-1-3-1-0-|
B|-5-3---3-5---5-5-5-5-5-------------------3---------------------|
G|-----5---------------------------------------------------------|
D|---------------------------------------------------------------|
A|---------------------------------------------------------------|
E|---------------------------------------------------------------|

(riff 1)
E|-----------------------5-5-5-3-3---3-1-0---0-1---1-1-1-1-3-1-0-|
B|-5-3---3-5---5-5-5-5-5-------------------3---------------------|
G|-----5---------------------------------------------------------|
D|---------------------------------------------------------------|
A|---------------------------------------------------------------|
E|---------------------------------------------------------------|

(riff 2)
E|---------------------------------------------------------------|
B|-0-1-0---0-1-0---------------1-1-1-3-1-0-----------------------|
G|-------2-------2-(2--4--5)---------------2-0-(0--2--4)---------|
D|---------------------------------------------------------------|
A|---------------------------------------------------------------|
E|---------------------------------------------------------------|

E|---------------------------------------------------------------|
B|-0-0-0-1-0-----------------------------------------------------|
G|-----------2-0---------------2-2-2-4-2-1-----------------------|
D|---------------3-(3--5--7)-------------------------------------|
A|---------------------------------------------------------------|
E|---------------------------------------------------------------|

(riff 3)
E|---------------------------------------------------------------|
B|---------------------------------------------------------------|
G|-2-2-2-4-2-1---------------------------------------------------|
D|-------------4-2--2-2-0---0-2----------------------------------|
A|------------------------3--------------------------------------|
E|---------------------------------------------------------------|

          Am                  G
Eu navegarei, no oceano do Espírito (riff 1 - 2x)
             F                   E
E ali adorarei, ao Deus do meu amor

               Am
Espírito, Espírito (oh,oh,oh)
                 G
Que desce como fogo (oh,oh,oh)
                   F                  (riff 2 - 2x)
Vem como em Pentecostes (oh,oh,vem)
              E
E enche-me de novo

          Am                   G
Eu adorarei ao Deus da minha vida
                 F                   (riff 1 - 2x)
Que me compreendeu
                   E
Sem nenhuma explicação.

               Am
Espírito, Espírito (oh,oh,oh)
                 G
Que desce como fogo (oh,oh,oh)
                   F                  (riff 2 - 2x)
Vem como em Pentecostes (oh,oh,vem)
              E
E enche-me de novo

          Am                G
Eu servirei ao meu Deus fiel        (riff 1 - 2x)
                F                 E
Ao meu libertador aquele que venceu

               Am
Espírito, Espírito (oh,oh,oh)
                 G
Que desce como fogo (oh,oh,oh)
                   F                  (riff 3 - 2x)
Vem como em Pentecostes (oh,oh,vem)
              E
E enche-me de novo (de novo, senhor)
Compositor não encontrado.
Colaboração e revisão:
  • fabricio souza
117 exibições
    • ½ Tom
    • A
    • Bb
    • B
    • C
    • Db
    • D
    • Eb
    • E
    • F
    • F#
    • G
    • Ab
  • Adicionar à lista

    0 comentários

    Ver todos os comentários

    Conseguiu tocar?

    0 Tocaram 0 Ainda não

    Grave um vídeo tocando Eu Navegarei e nos envie!

    00:00 / 00:00
    Outros vídeos desta música
    Repetir Qualidade Automático
    Outros vídeos desta música
    00:00 / 00:00
    Automático

    Cifra Club Pro

    Aproveite o Cifra Club com benefícios exclusivos e sem anúncios
    Cifra Club Pro
    Aproveite o Cifra Club com benefícios exclusivos e sem anúncios
    OK