Cifra Club

Aprenda

Letter to Dana

Sonata Arctica

Cifra: Live-in-finland (violão e guitarra)
Quer fazer aulas de música com a gente? Responda essas perguntas
e nos ajude nesse projeto! →
tom: F# (forma dos acordes no tom de G) Afinação: Eb Ab Db Gb Bb Eb
[Intro]

E|----------------------------------------|
B|----------------------------------------|
G|-------0--2-0-4-2-0-------0-------------|
D|-2s4----------------2---4----4------2s4-|
A|--------------------3--------5----------|
E|-------0------3-------------------------|

E|----------------------------------------|
B|----------------------------------------|
G|0--2-0-4-2-0----------------------------|
D|-------------2--------------------------|
A|-------------3--------------------------|
E|0------3--------------------------------|

E|----------------------------------------|
B|----------------------------------------|
G|-------0--2-0-4-2-0-------0-------------|
D|-2s4----------------2---4----4------2s4-|
A|--------------------3--------5----------|
E|-------0------3-------------------------|

E|----------------------------------------|
B|-------------------1-----------1--------|
G|0--2-0-4-2-0-----0---0-------0---0------|
D|---------------2-------2---2-------2----|
A|-------------3-----------3--------------|
E|0------3--------------------------------|

Em                    D          Em
Dana, my darling, I'm writing to you
            G                           C          Em
Cause your father passed away, it was a beautiful day
      Am                        Em
And I don't want to bother You anymore
          G                        
I used to hope you'd come back
    D           
But not anymore Dana

   Em                               D      Em
My eyes might have betrayed me, but I have seen
     G                          C         Em
your picture on the cover of a filthy magazine
      Am                         Em         
And I think my heart just cannot handle that
G                       D          C C5 C5 C6      
Dana, my darling, would be so bad.

[Solo]

E|-----------------------------------------|
B|-----------10--12-10---------------------|
G|-9-11--12----12-----12-9--11-12-11---9-11|
D|-----------------------------------------|
A|-----------------------------------------|
E|-----------------------------------------|

E|-----------------------------------------|
B|----10--12-10----------------------------|
G|12----12-----12-9------------------------|
D|-----------------------------------------|
A|-----------------------------------------|
E|-----------------------------------------|

E|-----------------------------------------|
B|-8-10--12-13-12-15-13-12-8-10s12-10--8-10|
G|-----------------------------------------|
D|-----------------------------------------|
A|-----------------------------------------|
E|-----------------------------------------|

E|-----------------------------------------|
B|12-13-12-15-13-12-8----------------------|
G|-----------------------------------------|
D|-----------------------------------------|
A|-----------------------------------------|
E|-----------------------------------------|

Em                   D         Em
Dana my darling I'm writing to you
            G                           C           Em
Cause your mother passed away it was a really rainy day
      Am                        Em
And I didn't mean to bother you anymore
Em          G                        D              
Your mother wished: Come visit your father's grave, Dana

     Em                   D              Em
Your father disowned you 'cause you have sinned
G                             C            Em
But he did forgive you in condition he was in
      Am                             Em    
And I hope you won't do those things anymore
G                    D       
Dana My darling I'm waiting for

       Em     G        C       D
Little Dana O'Hara oh, Dana my dear
      Em           G        C  
How I wish that my Dana was here
       Em     G       C        D
Little Dana O'Hara decided one day
    Em     G          C     
To travel away, far away


Am                         Em           C
  No, you can't surprise me anymore  oh-oh! 
  C            G      
  I've seen it all before
Am                      Em         
  But it seems I cannot let you go
  D     D     D     D
  Dana, Dana, Dana, Dana

Dm                    C       A#                  Dm    
  And I think that I told you, I'd wait for you forever
                               C         
  Now I think someone else is holding you,
               A#                         C     
  so, for the first time in my life - I must

Gm              F             
  Lie's a sin, mess that I am in
A#                 C       Dm
  Love is not the thing I feel now
Gm                  F                          A#
  I promise you: I won't write again 'til the sun sets
    C         Em
Behind your grave

[Solo]

E|-----------------------------------------|
B|-----------------------------------------|
G|-----------------------------------------|
D|----4-5--7---9-10--9---7-5--7------------|
A|7----------------------------------------|
E|-----------------------------------------|

E|-----------------------------------------|
B|-----------------------------------------|
G|-----------------------------------------|
D|--------4---5---4---5---5s7---5-p4-5-----|
A|5---7------------------------------------|
E|-----------------------------------------|

E|-----------------------------------------|
B|-----------------------------------------|
G|4---h5p4-----4---5s7---5p4---2-----------|
D|----------7------------------------------|
A|-----------------------------------------|
E|-----------------------------------------|

E|------------------------------8-10s12-10-|
B|-------------------------8-10------------|
G|7h9--7-9-7----------7--9-----------------|
D|-----------9--7-8-9----------------------|
A|-----------------------------------------|
E|-----------------------------------------|

Dm                    C        Dm
Dana, oh, Dana I'm writing to you
   F                              A#         Dm
I heard you passed away, it was a beautiful day
A#                           Dm            
I'm old and I feel time will come for me
    F                 C        
My diary's pages are full of thee

       Em     G        C       D
Little Dana O'Hara oh, Dana my dear
      Em           G        C   
How I wish that my Dana was here
       Em     G       C        D
Little Dana O'Hara decided one day
    Em     G          C      
to travel away, far away

       Em     G        C       D
Little Dana O'Hara oh, Dana my dear
      Em           G        C   
How I wish that my Dana was here
       Em     G       C        D
Little Dana O'Hara decided one day
    Em     G          C      
to travel away, far away

Em   G       C     D
  Return to sender
Em    G       C  
  Address unknown
Em G       C     D
  No such number
Em G       C  
  No such zone

[Final] Em G C D 
        Em G C D 
        Em G C D 
        Em G C D 

E|----------------------------------------|
B|----------------------------------------|
G|-------0--2-0-4-2-0-------0-------------|
D|-2s4----------------2---4----4------2s4-|
A|--------------------3--------5----------|
E|-------0------3-------------------------|

E|-------------------------------0-(3)----|
B|----------------------------1-----------|
G|0--2-0-4-2-0-------------0--------------|
D|-------------2--------2-----------------|
A|-------------3-----3--------------------|
E|0------3--------------------------------|
Compositor não encontrado.
Colaboração e revisão:
  • Matt Lopes
121 exibições
    • ½ Tom
    • A
    • Bb
    • B
    • C
    • Db
    • D
    • Eb
    • E
    • F
    • F#
    • G
    • Ab
  • Adicionar à lista

    0 comentários

    Ver todos os comentários

    Conseguiu tocar?

    0 Tocaram 0 Ainda não

    Grave um vídeo tocando Letter to Dana e nos envie!

    00:00 / 00:00
    Outros vídeos desta música
    Repetir Qualidade Automático
    Outros vídeos desta música
    00:00 / 00:00
    Automático

    Cifra Club Pro

    Aproveite o Cifra Club com benefícios exclusivos e sem anúncios
    Cifra Club Pro
    Aproveite o Cifra Club com benefícios exclusivos e sem anúncios
    OK