Cifra Club

Aprenda

My Friend Goo

Sonic Youth

Cifra: Principal (violão e guitarra)
tom: E
Tuning standard

define chords:


     E5     F#5    G5     C#5    D5
e|---x------x------x------x------x-----
b|---x------x------x------x------x-----
g|---x------x------x------x------x-----
d|---2------4------5------11-----12----
a|---2------4------5------11-----12----
E|---0------2------3------9------10----

heavy distortion, treble turned low, bass turned high 
(or else play it on a bass with the treble turned way up)

(note: this may not be in the same key as what is on the album, but i
think the basic intervals are correct)

intro:

e|-------------------------------
b|-------------------------------
g|-------------------------------
d|-2----44444-2--2----44444-2---- repeat once
a|-2----44444-2--2----44444-2----
E| -0----22222-0--0----22222-0----

E5 F#5              E5  F#5
my friend Goo has a ..
E5 F#5                E5  F#5
she always knows just ...
E5 F#5                              E5  F#5
she looks through her ...
E5 F#5                E5  F#5
what she does best is ...
G5               C#5 D5 C#5
she can play ...
G5                 C#5 D5 C#5
and the boys say :'Hey ...
G5                       C#5 D5 C#5
my friend Goo just ...
G5                       C#5 D5 C#5
my friend Goo just ...

E5 F#5             E5  F#5
i know a secret or two ...


G5               C#5 D5 C#5
she doesn't have nothing ....


E5 F#5             E5  F#5
i know a secret or two ....

G5             C#5 D5 C#5
and she sticks just like ....


  B5    A5   B5  A5   
e|-------------------------------
b|-------------------------------
g|-------------------------------
d|-9----77777-9--77777----- repeat four times
a|-9----77777-9--77777-----
E| -7----55555-7--55555-----

e|-------------------------------
b|-------------------------------
g|-8------------------------------
d|-8----????????????????--- repeat four times (very 
a|-6----????????????????-----       unsure about this part)
E| -------------------------------


e|-------------------------------
b|-------------------------------
g|-------------------------------
d|-7----99999-7--99999----- repeat four times
a|-7----99999-7--99999-----
E| -5----77777-9--77777-----

(insert 28 bars or more of sonic youth type soloing HERE)

G5             C#5 D5 C#5
Goo Goo Goo
G5             C#5 D5 C#5
Goo Goo Goo
G5             C#5 D5 C#5
Goo Goo Goo
G5             C#5 D5 C#5

(this continues)

my friend Goo...
Composição de Sonic Youth
Colaboração e revisão:
  • Carlos Mendes
987 exibições
    • ½ Tom
    • A
    • Bb
    • B
    • C
    • Db
    • D
    • Eb
    • E
    • F
    • F#
    • G
    • Ab
  • Adicionar à lista

    0 comentários

    Ver todos os comentários

    Conseguiu tocar?

    1 Tocaram 0 Ainda não

    Grave um vídeo tocando My Friend Goo e nos envie!

    00:00 / 00:00
    outros vídeos desta música
    repetir qualidade Automático
    Outros vídeos desta música
    00:00 / 00:00
    Automático

    Cifra Club Pro

    Aproveite o Cifra Club com benefícios exclusivos e sem anúncios
    Cifra Club Pro
    Aproveite o Cifra Club com benefícios exclusivos e sem anúncios
    OK