Cifra Club

Pra Você Escutar

Sorriso Maroto

Cifra: Base-e-solo (violão e guitarra)
tom: D
Solo pré-introdução:
Parte 1 
 
    D9            A         Bm7/11
E|------4-----------4---------4-----
B|----3-----------3---------3-------
G|--2-----------2---------0---------
D|0---------------------------------
A|-----------4----------2-----------
E|----------------------------------
   
E|-3h2------------------------------
B|------5-3-------------------------
G|-----------4-2--------------------
D|----------------5-4---------------
A|----------------------------------
E|----------------------------------

Parte 2

     D9            A         Bm7/11
E|------4-----------4---------4-----
B|----3-----------3---------3-------
G|--2-----------2---------0---------
D|0---------------------------------
A|-----------4----------2-----------
E|----------------------------------

E|-------10-------------------------
B|-----8----------------------------
G|---7------------------------------
D|----------------------------------
A|-9--------------------------------
E|----------------------------------


Verso:

D9          A9   Bm7/11
Em algum lugar, em algum momento
G9
Sei que essa canção vai tocar
D9          A9      Bm7/11
e quando tocar vai perceber que na verdade
G9
Fiz só pra você escutar


Base:
 
     D9
E|----------------------------------
B|--3-3-3-3-------------------------
G|-2-2-2-2--------------------------
D|----------------------------------
A|----------------------------------
E|----------------------------------

      A
E|----------------------------------
B|--3-3-3-3-------------------------
G|----------------------------------
D|----------------------------------
A|-4-4-4-4--------------------------
E|----------------------------------

 Bm7/11
E|----------------------------------
B|--3-3-3-3-------------------------
G|----------------------------------
D|----------------------------------
A|-2-2-2-2--------------------------
E|----------------------------------

 G9
E|----------------------------------
B|--3-3-3-3-------------------------
G|----------------------------------
D|----------------------------------
A|----------------------------------
E|-3-3-3-3--------------------------



Pré-Refrão:

D9            G9            Em7
  Ouvir com alguém ou sem ninguém
          G9                    D9
mas eu duvido que não vai se lembrar
          G9  Gm6
do nosso amor...



Refrão: 

  D9              A           Bm7/11
E eu nem sei de você, sem te esquecer
        G9                 D9
da um sinal que vou ai te buscar
            A         Bm7/11
Desenlouquecer, desentorpecer
        G9                    D9
Desembaraçar... teu coração devagar

                    A9
Teus sonhos, teus beijos
                    Bm7/11
Teus planos tão no mesmo lugar
G9                      D9
Duvido que não vai se lembrar
                    A9
Das loucuras, do desejo
                    Bm7/11
do meu jeito de te impressionar
G9                  D9
Cantando pra você escutar



Vocal:

 D9   A   Bm7/11  G9
Uooh,uooh, uooh,  uooh

 D9   A    Bm7/11  G9
Uooh,uooh, uooooh  



Verso: 

D9          A9   Bm7/11
Em algum lugar, em algum momento
G9
Sei que essa canção vai tocar
D9          A9      Bm7/11
e quando tocar vai perceber que na verdade
G9
Fiz só pra você escutar



Pré-Refrão:

D9            G9            Em7
  Ouvir com alguém ou sem ninguém
          G9                    D9
mas eu duvido que não vai se lembrar
          G9  Gm6
do nosso amor...



Refrão: 

  D9              A           Bm7/11
E eu nem sei de você, sem te esquecer
        G9                 D9
da um sinal que vou ai te buscar
            A         Bm7/11
Desenlouquecer, desentorpecer
        G9                    D9
Desembaraçar... teu coração devagar

                    A9
Teus sonhos, teus beijos
                    Bm7/11
Teus planos tão no mesmo lugar
G9                      D9
Duvido que não vai se lembrar
                    A9
Das loucuras, do desejo
                    Bm7/11
do meu jeito de te impressionar
G9                  D9
Cantando pra você escutar


Vocal: 

D9(x2)  A(x2)  Bm7/11(x2)  G9(x2)
 Uooh,   uooh,  uooh,       uooh
  
 D9   A    Bm7/11  G9
Uooh,uooh, uooooh  



Refrão:

D9              A           Bm7/11
E eu nem sei de você, sem te esquecer
        G9                 D9
da um sinal que vou ai te buscar
            A         Bm7/11
Desenlouquecer, desentorpecer
        G9                    D9
Desembaraçar... teu coração devagar

                    A9
Teus sonhos, teus beijos
                    Bm7/11
Teus planos tão no mesmo lugar
G9                      D9
Duvido que não vai se lembrar
                    A9
Das loucuras, do desejo
                    Bm7/11
do meu jeito de te impressionar
G9                  D9
Cantando pra você escutar


Vocal: 

D9    A    Bm7/11  G9  (Pausa)
Uooh,uooh, uooh,  uooh

D9     A    Bm7/11  G9  D9
Uooh ,uooh, uooooh
00:00 / 00:00
Outros vídeos desta música
Repetir
Outros vídeos desta música
Composição de Bruno Cardoso / Dilsinho / Sérgio Jr
Colaboração e revisão:
  • Teus Vaz
188 exibições
    • ½ Tom
    • A
    • Bb
    • B
    • C
    • Db
    • D
    • Eb
    • E
    • F
    • F#
    • G
    • Ab
  • Adicionar à lista

    0 comentários

    Ver todos os comentários

    Conseguiu tocar?

    0 Tocaram 0 Ainda não

    Grave um vídeo tocando Pra Você Escutar e nos envie!

    Entre para oCifra Club PRO

    Tenha acesso a benefícios exclusivos no App e no Site

    • Chega de anúncios

    • Prioridade de compra em lançamentos

    • Mais recursos no app do Afinador

    • Atendimento Prioritário

    • Descontos nos produtos Cifra Club

    • Ajude a produzir mais conteúdo

    00:00 / 00:00

    Cifra Club Pro

    Aproveite o Cifra Club com benefícios exclusivos e sem anúncios
    Cifra Club Pro
    Aproveite o Cifra Club com benefícios exclusivos e sem anúncios