Somebody To Shove

Soul Asylum

Composição de: Dave Pirner
tom: D
Intro:
-12-------12-------12----15------14--------------
----12-------12-------12----12------12----15-----
-------12-------12-------------12------12----12--
-------------------------------------------------
-------------------------------------------------
-------------------------------------------------

Riff 1 - palm mute
------------------
------------------
--4---4---4---4---
--4---4---4---4---
--2---3---2-------
----------3---2---
Grandfather watches the grandfather clock
And the phone hasn't rang for so long
And the time flies by like a vulture in the sky
Suddenly he breaks into song

Riff 2
                                      P1
--3---------3-----------3-------------3-------
--3---------3-----------3-------------3-------
--0---------2-----------0-------------0-------
--0---------2-----------2-------------2-------
--2---------0-----------2-------------3-------
--3---------0-----------0---------------------
I'm waiting by the phone
Waiting for you to call me up and tell me I'm not alone
I'm waiting by the phone
Waiting for you to call me up and tell me I'm not alone

Riff 1
Hello, speak up, is there somebody there?
These hang-ups are getting me down
In a world frozen over with over-exposure
Let's talk it over, let's go out and paint the town

Riff 2
I'm waiting by the phone
Waiting for you to call me up and tell me I'm not alone

P1     G        A           P1
Cause I want somebody to shove
    G      A          P1
I need somebody to shove
    G      A          P1
I want somebody to shove me

Riff 1
You're a dream for insomniacs, prize in the Cracker Jacks
All the difference in the world is just a call away

Riff 2
I'm waiting by the phone
Waiting for you to call me up and tell me I'm not alone - 2x

P1     G        A           P1
Cause I want somebody to shove
    G      A          P1
I need somebody to shove
    G      A          P1
I want somebody to shove me
Página 1 / 1

Letras e título
Acordes e artista

resetar configurações
OK